» » »

Dream Theater - A Savior Of The Square Tabs

Artists:  A B C D E F G H I J K L M N O P Q R S T U V W X Y Z # 

A Savior Of The Square Tabs

(ver. 1) Click to play this song!
Dream Theater
 Rating:
4.3/5 (26 votes)

 A Savior Of The Square  lessons Tabs too difficult? Try these video lessons and learn fast
 
                Tuning: Standard(E)


E|-----------------------------------------------5~--------------------------------------------------|
B|-------5-5/7\5b-5~---------------5---7b--5~---------8-7-8-7---------------8-7-8-7------------------|
G|-----7--------------------7------------------7-----------------------------------------------7-----|
D|-2/7------------------7---------------------------------------7/9~-----5~-------------7~-------5-4~|
A|---------------------------------------------------------------------------------------------------|
E|---------------------------------------------------------------------------------------------------|

E|-----------12-14b-12b------------------12-14b-12-----17~-15-14-15-14----------------------------------------|
B|-------15----------------15~--------15-----------15~------------------------15-----------------------15-----|
G|---14--------------------------14-----------------------------------14/16~-----12—12~-11-12-11-12/14~--12-11|
D|------------------------------------------------------------------------------------------------------------|
A|------------------------------------------------------------------------------------------------------------|
E|------------------------------------------------------------------------------------------------------------|


E|---------------------------------------10--7----------------------------------------------------------------|
B|---------7-8~-7-------------8-7-8-7—10~-------10--7--------------------------7-8b-7~------------------------|
G|----7-9--------9-7~----7-9--------------------------9—7----------------7--9---------9—7-------------------7-|
D|-------------------------------------------------------9-7------------------------------9-10b-9---7---------|
A|-------------------------------------------------------------7/9\5/9---------------------------------10-7-7-|
E|------------------------------------------------------------------------------------------------------------|
            
Submit corrections


        A Savior Of The Square  lessons Hard to play? Try these video lessons and learn fast A Savior Of The Square  lessons
        
↑ Back to top | Tablatures and chords for acoustic guitar and electric guitar, ukulele, drums are parodies/interpretations of the original songs. You may use it for private study, scholarship, research or language learning purposes only