» » »

Dream Theater - A Savior In The Square Tabs

Artists:  A B C D E F G H I J K L M N O P Q R S T U V W X Y Z # 

A Savior In The Square Tabs

(ver. 1) Click to play this song!
Dream Theater
 Rating:
4.3/5 (10 votes)

 A Savior In The Square  lessons Tabs too difficult? Try these video lessons and learn fast
 
                Section A
e|---------------------------------------------------------------------------|
B|-----------------3---------------------------------------------------------|
G|-------------0----------------0---2------0---------------------------------|
D|---------4----------------4-----------4------4-----2--0-2--0--2------------| x2
A|-----5---------------------------------------------------------------------|
E|---------------------------------------------------------------------------|

e|---------------------------------------------------------------------------|
B|-----------------3---------------------------------------------------------|
G|-------------0----------------0---2------0---------------------------------|
D|---------4----------------4-----------4------4-----2--0-2--0--2------------| 
A|-----2---------------------------------------------------------------------|
E|---------------------------------------------------------------------------|

e|---------------------------------------------------------------------------|
B|-----------------3---------------------------------------------------------|
G|-------------0----------------0---2------0---------------------------------|
D|---------4----------------4-----------4------4-----2--0-2--0--2------------|
A|-----5---------------------------------------------------------------------|
E|---------------------------------------------------------------------------|

Section B
e|---------------------------------------------------------------------------|
B|--------------------3----2----0--------------------------------------------|
G|---------------0-------------------------------------0-----2---2-----------|
D|---------------------------------------------------------------------------|
A|---------2-------------------------------------2---------------------------|
E|----3------------------------------------0---------------------------------|

e|---------------------------------------------------------------------------|
B|-----------------3---------------------------------------------------------|
G|-------------0----------------0---2------0---------------------------------|
D|---------4----------------4-----------4------4-----2--0-2--0--2------------| 
A|-----5---------------------------------------------------------------------|
E|---------------------------------------------------------------------------|

- Section A repeats afterwards for some time before it changes into chords

Solo 
e|---------------------------------------------------------------------------|
B|----------------3------/7------3---/5-----/3-------------------------------|
G|----------2----------------------------------------------------------------|
D|----/4---------------------------------------------------------------------|
A|---------------------------------------------------------------------------|
E|---------------------------------------------------------------------------|

e|---------------------------------------------------------------------------|
B|----------------3------5br7----3--/10------8--7--8---7---------------------|
G|----------2----------------------------------------------------------------|
D|----/4---------------------------------------------------------------------|
A|---------------------------------------------------------------------------|
E|---------------------------------------------------------------------------|

e|---------------------------------------------------------------------------|
B|--------------------------------------/8----7--8----7----------------------|
G|---------------------------------------------------------------------------|
D|---/9-----------------5----------------------------------------------------|
A|---------------------------------------------------------------------------|
E|---------------------------------------------------------------------------|

e|---------------------------------------------------------------------------|
B|---------------------------------------------------------------------------|
G|--/7--------------2----0---------------------------------------------------|
D|-----------------------------4---------------------------------------------|
A|---------------------------------------------------------------------------|
E|---------------------------------------------------------------------------|


e|---------------------------------------------------------------------------|
B|----------------15-----17br19----15--/17------15---------------------------|
G|----------14---------------------------------------------------------------|
D|----/16--------------------------------------------------------------------|
A|---------------------------------------------------------------------------|
E|---------------------------------------------------------------------------|


e|---------------------------------------------------------------------------|
B|----------------15-----17br19----15--/22-----/20--19--20----19-------------|
G|----------14---------------------------------------------------------------|
D|----/16--------------------------------------------------------------------|
A|---------------------------------------------------------------------------|
E|---------------------------------------------------------------------------|


e|---------------------------------------------------------------------------|
B|---------------------------------------------------------------------------|
G|------------19----16----/12-------12---11--12---11-------------------------|
D|------21-------------------------------------------------------------------|
A|---------------------------------------------------------------------------|
E|---------------------------------------------------------------------------|


e|---------------------------------------------------------------------------|
B|----------------------15---------------------------------------------------|
G|-------/14-------------------12------11------------------------------------|
D|---------------------------------------------------------------------------|
A|---------------------------------------------------------------------------|
E|---------------------------------------------------------------------------|

e|---------------------------------------------------------------------------|
B|---------------------------------------------------------------------------|
G|---------9-11-12----11-9---------9h11-12-11--12--11------------------------|
D|-----/12------------------12-----------------------------------------------|
A|---------------------------------------------------------------------------|
E|---------------------------------------------------------------------------|

e|---------------------------------------------------------------------------|
B|------------15-12----------------------------------------------------------|
G|-----/14----------14-12--------------------------------11---12-------------|
D|------------------------14-12-------------------12-14----------------------|
A|------------------------------14-12----------14----------------------------|
E|-----------------------------------/12--10---------------------------------|

e|---------------------------------------------------------------------------|
B|---------------------------------------------------------------------------|
G|-------11h9----------------------------------------------------------------|
D|-------------12----9/10--9h7-------------------~12-------------------------|
A|------------------------------10-----7---/9--------------------------------|
E|---------------------------------------------------------------------------|
            
Submit corrections


        A Savior In The Square  lessons Hard to play? Try these video lessons and learn fast A Savior In The Square  lessons
        
↑ Back to top | Tablatures and chords for acoustic guitar and electric guitar, ukulele, drums are parodies/interpretations of the original songs. You may use it for private study, scholarship, research or language learning purposes only