» » »

Dream Theater - A Change Of Seasons I The Crimson Sunrise Tabs

Artists:  A B C D E F G H I J K L M N O P Q R S T U V W X Y Z # 

A Change Of Seasons I The Crimson Sunrise Tabs

(ver. 1) Click to play this song!
Dream Theater
 Rating:
4.3/5 (19 votes)

 A Change Of Seasons I   The Crimson Sunrise lessons Tabs too difficult? Try these video lessons and learn fast
 
                  N.C.(Bm)
 4/4                           3/4
  |-3-|             |-3-|
  S S S e E S S e E S S S e E   E S S e E Q   
|-----------------------------|---------------||
|-----------------------------|---------------||
|-----------------------------|---------------||
|-7-7-7-5---------------------|---------------||
|-----------9-9-7---5-5-5-4---|---------------||
|-----------------------------|---7-7-5-------||


 4/4                     3/4
 PM---|   PM|   PM|   PM------|   PM|
  E S S E S S E S S E E   S S E E S S E E
|-----------------------|-----------------|
|-----------------------|-----------------|
|-----------------------|-------2---------|
|-------------4-----5---|-2-2---------5-4-|
|-2-2-2-5-2-2---2-2---2-|-----2---2-2-----|
|-----------------------|-----------------|


                                D5  E5
 4/4                     3/4
 PM---|   PM|   PM|   PM------|   PM
  E S S E S S E S S E E   S S E E E Q
|-----------------------|---------------|
|-----------------------|---------------|
|-----------------------|-------7---9---|
|-------------4-----5---|-5-5---7---9---|
|-2-2-2-5-2-2---2-2---5-|-----5-5-0-7---|
|-----------------------|---------------|


 4/4                     3/4
 PM---|   PM|   PM|   PM------|   PM|
  E S S E S S E S S E E   S S E E S S E E
|-----------------------|-----------------|
|-----------------------|-----------------|
|-----------------------|-------2---------|
|-------------4-----5---|-2-2---------5-4-|
|-2-2-2-5-2-2---2-2---2-|-----2---2-2-----|
|-----------------------|-----------------|


 4/4
 PM---|   PM|   PM|                        |-3-|
  E S S E S S E S S E E   E. S S S S S S S S S S S S S S   S S S S E E E E Q
|-----------------------|------------------5-7-5-4-------|-------------------||
|-----------------------|----------------7---------7-6---|-5---4-------------||
|-----------------------|------7---6-5-4---------------7-|---6---5-----------||
|-------------4-----5---|----4---4-----------------------|---------7---6-----||
|-2-2-2-5-2-2---2-2-----|--------------------------------|-------------------||
|-----------------------|--------------------------------|-------------------||


 4/4                     3/4
 PM---|   PM|   PM|   PM------|   PM|
  E S S E S S E S S E E   S S E E S S E E
|-----------------------|-----------------|
|-----------------------|-----------------|
|-----------------------|-------2---------|
|-------------4-----5---|-2-2---------5-4-|
|-2-2-2-5-2-2---2-2---2-|-----2---2-2-----|
|-----------------------|-----------------|


                                G5  E5
 4/4                     3/4
 PM---|   PM|   PM|   PM------|   PM
  E S S E S S E S S E E   S S E E E Q
|-----------------------|---------------|
|-----------------------|---------------|
|-----------------------|-------7---9---|
|-------------4-----5---|-5-5---5---9---|
|-2-2-2-5-2-2---2-2---5-|-----5-5-0-7---|
|-----------------------|---------------|


 4/4                     3/4
 PM---|   PM|   PM|   PM------|   PM|
  E S S E S S E S S E E   S S E E S S E E
|-----------------------|-----------------|
|-----------------------|-----------------|
|-----------------------|-------2---------|
|-------------4-----5---|-2-2---------5-4-|
|-2-2-2-5-2-2---2-2---2-|-----2---2-2-----|
|-----------------------|-----------------|


                                D5  E5
 4/4                     3/4
 PM---|   PM|   PM|   PM------|   PM
  E S S E S S E S S E E   S S E E E Q
|-----------------------|---------------||
|-----------------------|---------------||
|-----------------------|-------7---9---||
|-------------4-----5---|-5-5---7---9---||
|-2-2-2-5-2-2---2-2---5-|-----5-5-0-7---||
|-----------------------|---------------||


    N.C.(C#m)
   4/4                 9/8
    PM|   PM      PM    PM
    E E E E E S S E E   E E E E E E E E E 
||--------------------|-------------------|
||--------------------|-------------------|
||o-------------------|-------------------|
||------4---6-4-4---7-|---6---------------|
||o-4-4---4-------4---|-4---7-------4-7-5-|
||--------------------|-------4-5-7-------|


  4/4                 9/8
  PM|   PM      PM    PM
  E E E E E S S E E   E E E E E E E E E 
|-------------------|-------------------|
|-------------------|-------------------|
|-------------------|-------------------|
|-----4---6-4-4-----|---6---------------|
|-4-4---4-------4---|-4-----------4-7-5-|
|-----------------5-|-----0-4-5-7-------|


 4/4                 9/8
  PM|   PM      PM    PM
  E E E E E S S E E   E E E E E E E E E 
|-------------------|-------------------||
|-------------------|-------------------||
|-------------------|-------------------||
|-----4---6-4-4---7-|---6---------------||
|-4-4---4-------4---|-4---7-------4-7-5-||
|-------------------|-------4-5-7-------||


  N.C.(Em)
 4/4                 9/8
  PM|   PM      PM   PM
  E E E E E S S E E   E E E E E E E E E
|-------------------|--------------------|
|-------------------|--------------------|
|-----2---4-2-2---5-|---4----------------|
|-2-2---2-------2---|-2---5-------2-5-3--|
|-------------------|-------2-3-5--------|
|-------------------|--------------------|


 4/4                 9/8
  PM|   PM      PM   PM
  E E E E E S S E E   E E E E E E E E E
|-------------------|--------------------|
|-------------------|--------------------|
|-----2---4-2-2-----|---4----------------|
|-2-2---2-------2---|-2-----------2-5-3--|
|-----------------3-|-------2-3-5--------|
|-------------------|-----3--------------|


 4/4                 9/8
  PM|   PM      PM   PM
  E E E E E S S E E   E E E E E E E E E
|-------------------|---------------------||
|-------------------|---------------------||
|-----2---4-2-2---5-|---4----------------o||
|-2-2---2-------2---|-2---5-------2-5-3---||
|-------------------|-------2-3-5--------o||
|-------------------|---------------------||


  N.C.(C#m)
 4/4                 9/8
  PM|   PM      PM    PM
  E E E E E S S E E   E E E E E E E E E 
|-------------------|-------------------|
|-------------------|-------------------|
|-------------------|-------------------|
|-----4---6-4-4---7-|---6---------------|
|-4-4---4-------4---|-4---7-------4-7-5-|
|-------------------|-------4-5-7-------|


  4/4                 9/8
  PM|   PM      PM    PM
  E E E E E S S E E   E E E E E E E E E 
|-------------------|-------------------|
|-------------------|-------------------|
|-------------------|-------------------|
|-----4---6-4-4-----|---6---------------|
|-4-4---4-------4---|-4-----------4-7-5-|
|-----------------5-|-----0-4-5-7-------|


 4/4                 9/8
  PM|   PM      PM    PM
  E E E E E S S E E   E E E E E E E E E 
|-------------------|-------------------||
|-------------------|-------------------||
|-------------------|-------------------||
|-----4---6-4-4---7-|---6---------------||
|-4-4---4-------4---|-4---7-------4-7-6-||
|-------------------|-------4-5-7-------||


 N.C.
 4/4                               5/8
  Q  E E Q  E E   Q  E  E Q  E  E    Q.  Q
|---------------|------------8-11-|-10-----|
|---------------|----7-10-9-------|--------|
|-----------5-8-|-7---------------|--------|
|----4-7-6------|-----------------|--------|
|-5-------------|-----------------|--------|
|---------------|-----------------|--------|


                                        Slower Q=112
                                        F#5
 17/16                                 4/4
   S S S  S S S S S S S S S S S S S S   q  E S S q  E S S
|-11-9-8------------------------------|-------------------*|
|--------10-9-7-----------------------|-------------------*|
|---------------8-6-5-----------------|-------------------*|
|---------------------7-6-4-----------|-------------------*|
|---------------------------6-4-3-----|-4----4-4-4----4-4-*|
|---------------------------------5-4-|-2----2-2-2----2-2-*|
            
Submit corrections


        A Change Of Seasons I   The Crimson Sunrise lessons Hard to play? Try these video lessons and learn fast A Change Of Seasons I   The Crimson Sunrise lessons
        
↑ Back to top | Tablatures and chords for acoustic guitar and electric guitar, ukulele, drums are parodies/interpretations of the original songs. You may use it for private study, scholarship, research or language learning purposes only