» » »

Dover - Sea Witch Tabs

Artists:  A B C D E F G H I J K L M N O P Q R S T U V W X Y Z # 

Sea Witch Tabs

(ver. 1) Click to play this song!
Dover
 Rating:
4/5 (4 votes)

 Sea Witch lessons Tabs too difficult? Try these video lessons and learn fast
 
                

INTRO/VERSE:

e-|-----------------------------------|
B-|-----------------------------------|
G-|--9-9-9--7-7-7---------------------|
D-|--9-9-9--7-7-7---3/5-5-5--7-7-7/9--|
A-|--7-7-7--5-5-5---3/5-5-5--7-7-7/9--|
E-|-----------------1/3-3-3--5-5-5/7--|


Part after the intro: (not really sure about this!)

e-|-----------------------------------|
B-|-----------------------------------|
G-|-----------7-7-7/9-9-9-------------|
D-|--7-7/9-9--7-7-7/9-9-9-------------|
A-|--7-7/9-9--5-5-5/7-7-7-------------|
E-|--5-5/7-7--------------------------|


BREAKE:

e-|-----------------------------------|
B-|-----------------------------------|
G-|--9-9-9------------7-7-7-----------|
D-|--9-9-9--10-10-10--7-7-7--7-7-7----|
A-|--7-7-7--10-10-10--5-5-5--7-7-7----|
E-|---------8--8--8----------5-5-5----|
                                       

CHOURS:

e-|-----------------------------------|
B-|-----------------------------------|
G-|--9-9-9--7-7-7---------------------|
D-|--9-9-9--7-7-7--10-10-10--9-9-9----|
A-|--7-7-7--5-5-5--10-10-10--9-9-9----|
E-|----------------8--8--8---7-7-7----|



play like this:

-INTRO 4x
-PART AFTER INTRO 4x 

-VERSE(pm) 2x
-VERSE     2x

-BREAKE   (play clean)

-CHOURS    3x
-PART AFTER CHOURS (???) 2x

-INTRO 4x
-PART AFTER INTRO 4x  

-VERSE(pm) 2x
-VERSE     2x

-BREAKE   (play clean)

-CHOURS    3x
-PART AFTER CHOURS (???) 2x

-PART AFTER INTRO 4x

-BREAKE   (play clean)

-INTRO (2x)

-ENDING:

e-|-----------------------------------|
B-|-----------------------------------|
G-|-----7--9--------------------------|
D-|--9--7--9--------------------------|
A-|--9--5--7--------------------------|
E-|--7--------------------------------|
            
Submit corrections


        Sea Witch lessons Hard to play? Try these video lessons and learn fast Sea Witch lessons
        
↑ Back to top | Tablatures and chords for acoustic guitar and electric guitar, ukulele, drums are parodies/interpretations of the original songs. You may use it for private study, scholarship, research or language learning purposes only