» » »

Dover - Anacrusa Tabs

Artists:  A B C D E F G H I J K L M N O P Q R S T U V W X Y Z # 

Anacrusa Tabs

(ver. 1) Click to play this song!
Dover
 Rating:
4/5 (4 votes)

 Anacrusa lessons Tabs too difficult? Try these video lessons and learn fast
 
                Tabulado por Crisman para guitarra

Nota: Esta cancion es a una guitarra (Amparo - Sin cejilla)

Intro:
             C
e---------------------------
B---------------------------
G-------------5-------------
D-------------5------------- x4
A-------------3-------------
E---00-00-00----------------
    ** ** **
Verso:
                         E    C            E           
e-----------------------------------------------
B-----------------------------------------------
G-------------------------5^----------------5---
D-------------------------5^----------------5---  
A-------------------------7^---10-10-10-10--7---
E---00-00-00-00-00-00-00-------8--8--8--8-------
    ** ** ** ** ** ** **
    I wish I could be so true
  
                         E
e-----------------------------
B-----------------------------
G-------------------------5^--
D-------------------------5^--  
A-------------------------7^--
E---00-00-00-00-00-00-00------
    ** ** ** ** ** ** ** 
 
Estrivillo:
    C              G          A
e-----------------------------------------------
B-----------------------------------------------
G-----------------------------------------------
D--10-10-10-10----5-5-5-5----7-7-7-7------------
A--10-10-10-10----5-5-5-5----7-7-7-7------------
E--8--8--8--8-----3-3-3-3----5-5-5-5------------
    
     'cause  I  thought that I was you

    F             G          A
e-----------------------------------------------
B-----------------------------------------------
G--10-10-10-10----------------------------------
D--10-10-10-10----5-5-5-5----7-7-7-7------------
A--8--8--8--8-----5-5-5-5----7-7-7-7------------
E-----------------3-3-3-3----5-5-5-5------------
   our song       is         for you 
   
    F             G          A
e-----------------------------------------------
B-----------------------------------------------
G--10-10-10-10----------------------------------
D--10-10-10-10----5-5-5-5---------7--------------
A--8--8--8--8-----5-5-5-5---------7--------------
E-----------------3-3-3-3---------5--------------
         I    thought that I was you

              C
e---------------------------
B---------------------------
G-------------5-------------
D-------------5------------- x2
A-------------3-------------
E---00-00-00----------------
    ** ** **
   F         G         A         F         G         A         
e-------------------------------------------------------
B-------------------------------------------------------
G-------------------------------------------------------
D--3-3-3-3---5-5-5-5---7-7-x-7-\-3-3-3-3---5-5-5-5---7--
A--3-3-3-3---5-5-5-5---7-7-x-7-\-3-3-3-3---5-5-5-5---7--
E--1-1-1-1---3-3-3-3---5-5-x-5-\-1-1-1-1---3-3-3-3---5--
         Oh Yeah!                                Yeah!

Puente: 

   F         G         A         F         G         A         F         G         A
e-------------------------------------------------------------------------------------
B-------------------------------------------------------------------------------------
G-------------------------------------------------------------------------------------
D--3-3-3-3---5-5-5-5---7-7-x-7-\-3-3-3-3---5-5-5-5---7-7-x-7-\-3-3-3-3---5-5-5-5---7--
A--3-3-3-3---5-5-5-5---7-7-x-7-\-3-3-3-3---5-5-5-5---7-7-x-7-\-3-3-3-3---5-5-5-5---7--
E--1-1-1-1---3-3-3-3---5-5-x-5-\-1-1-1-1---3-3-3-3---5-5-x-5-\-1-1-1-1---3-3-3-3---5--
                    I miss you                    I really do               yeah you


Final:
              
e-----------------------------
B-----------------------------
G----5-5-5-5-5-5-x------------
D----5-5-5-5-5-5-x------------
A----7-7-7-7-7-7-x------------
E----0-0-0-0-0-0-x------------

(en alguna version en directo Crsitina al final grita "Yeahhhhhhhh!")


Orden de la cancion:

Intro 
Verso
Estrivillo
Intro
Verso
Estrivillo
Intro
Puente
Intro
Final
 
Tabulado por Cristian Ferrer ;)
            
Submit corrections


        Anacrusa lessons Hard to play? Try these video lessons and learn fast Anacrusa lessons
        
↑ Back to top | Tablatures and chords for acoustic guitar and electric guitar, ukulele, drums are parodies/interpretations of the original songs. You may use it for private study, scholarship, research or language learning purposes only