» » »

Dissection - Where Dead Angels Lie Bass

Artists:  A B C D E F G H I J K L M N O P Q R S T U V W X Y Z # 

Where Dead Angels Lie Bass

(ver. 1) Click to play this song!
Dissection
 Rating:
4/5 (4 votes)


 Where Dead Angels Lie lessons Tabs too difficult? Try these video lessons and learn fast
 
                Easy and fun song, listen for timing.

Intro and Outro

G|-----------|
D|-----------|
A|---------3-|
E|0-3-1-0----|

Verse

G|--------------------|
D|--------------------|
A|--6---6---6--3-2----|
E|0---0---0--------0--|

Pre-Chorus

G|------------|---------------|
D|------------|---------------|
A|--7-6-3-2---|--7-2-3--------|
E|0---------0-|0-------3-2-0--|

Chorus

G|---------------------|-------------------|
D|---------------------|-------------------|
A|--2---3---2--7--5-7--|--2---5---2-3-2----|
E|0---0---0------------|0---3---0-------0--|

Interlude A

G|-------------|------------------------------|
D|-------------|------------------------------|
A|--7-6--3-2---|--7-6--3-2--3-3-2-2-3-3-2-2---|
E|0----------0-|0-----------------------------|

Interlude B

G|----------------|------------------|
D|----------------|-----------1------|
A|----3-----------|----3--------1----|
E|0-1---0--1-3-1--|0-1---0--0-----3--|
            
Submit corrections



        Where Dead Angels Lie lessons Hard to play? Try these video lessons and learn fast Where Dead Angels Lie lessons
        
↑ Back to top | Tablatures and chords for acoustic guitar and electric guitar, ukulele, drums are parodies/interpretations of the original songs. You may use it for private study, scholarship, research or language learning purposes only