» » »

Dispatch - Time Served Tabs

Artists:  A B C D E F G H I J K L M N O P Q R S T U V W X Y Z # 

Time Served Tabs

(ver. 3) Click to play this song!
Dispatch
 Rating:
4/5 (4 votes)

 Time Served lessons Tabs too difficult? Try these video lessons and learn fast
 
                Dispatch/One Fell Swoop
Who Are We Living For
Time Served

---------------------------------------------------------|
---------------------------------------------------------|
--------------------2-0----------------------------------|	x1
-----0-2--0-5-2-0-2-----2--5-2-0-2--0-5-2---2------------|
-3-5--------------------------------------5---5-2--------|
--------------------------------------------------5-3-0--|

---------------------------------------------------------|
---------------------------------------------------------|
--------------------2-0---------------------------0-2-0--| x1
-5-2-0-2--0-5-2-0-2-----2--5-2-0-2--0-5-2-----0-2--------|
---------------------------------------------------------|
------------------------------------------0-2------------|

 Em	D	Em	D	Em	D	C	D
-7------5-------7-------5-------7-------5-------3-------5--|
-8------7-------8-------7-------8-------7-------5-------7--|
-9------7-------9-------7-------9-------7-------5-------7--|	x2
-9------7-------9-------7-------9-------7-------5-------7--|
-7------5-------7-------5-------7-------5-------3-------5--|
-----------------------------------------------------------|

---------------------------------------------------------------------------|
---------------------------------------------------------------------------|
-----------------------------------------4---------4-2------4-2-----2------|	x1
-2-2-5--2-2-2-2-5-4--0-0-5-4--4h5-2--2-2---2-2-2-2------0-0-----4-5---5-4--|
---------------------------------------------------------------------------|
---------------------------------------------------------------------------|

---------------------------------------------------------------------------|
---------------------------------------------------------------------------|
-----------------------------------------4---------4-2------4-2-----2b4----|	x1
-2-2-5--2-2-2-2-5-4--0-0-5-4--4h5-2--2-2---2-2-2-2------0-0-----4-5--------|
---------------------------------------------------------------------------|
---------------------------------------------------------------------------|

 Em	D	Em	D	Em	D	C	D
-7------5-------7-------5-------7-------5-------3-------5--|
-8------7-------8-------7-------8-------7-------5-------7--|
-9------7-------9-------7-------9-------7-------5-------7--|	x2
-9------7-------9-------7-------9-------7-------5-------7--|
-7------5-------7-------5-------7-------5-------3-------5--|
-----------------------------------------------------------|

(LEAD CHORDS)
--------------------------------------------------------------------------|
--------------------------------------------------------------------------|
4---------4-2------4-2-----2----------------------------------------------|
2-2-5--2-2-2-2-5-4--0-0-5-4--4h5-2--2-2---2-2-2-2------0-0-----4-5--------|
--------------------------------------------------------------------------|
--------------------------------------------------------------------------|

LEAD:
-----------|
-----------|
-7s9-9-----|
-----------|
-----------|
--------7--|

---------------------------------------------------------------------|
---------------------------------------------------------------------|
-----------------------------------------4---------4-2------4-2------|	x1
-2-2-5--2-2-2-2-5-4--0-0-5-4--4h5-2--2-2---2-2-2-2------0-0-----4-5--|
---------------------------------------------------------------------|
---------------------------------------------------------------------|

---------------------------------------------------------|
---------------------------------------------------------|
-----------------------------------------4------4-2---2--|	x1
-2-2-5--2-2-2-2-5-4--0-0-5-4--4h5-2--2-2----0-0-----4----|
---------------------------------------------------------|
---------------------------------------------------------|

 Em	Em	Em	D	Em	Em	C	D
-7------7-------7-------5-------7-------7-------3-------5--|
-8------8-------8-------7-------8-------8-------5-------7--|
-9------9-------9-------7-------9-------9-------5-------7--|	x1
-9------9-------9-------7-------9-------9-------5-------7--|
-7------7-------7-------5-------7-------7-------3-------5--|
-----------------------------------------------------------|

 Em	D	Em	D	Em	D	C	D
-7------5-------7-------5-------7-------5-------3-------5--|
-8------7-------8-------7-------8-------7-------5-------7--|
-9------7-------9-------7-------9-------7-------5-------7--|	x2
-9------7-------9-------7-------9-------7-------5-------7--|
-7------5-------7-------5-------7-------5-------3-------5--|
-----------------------------------------------------------|

---------------------------------------------------------|
---------------------------------------------------------|
--------------------2-0----------------------------------|	x1
-5-2-0-2--0-5-2-0-2-----2--5-2-0-2--0-5-2---2------------|
------------------------------------------5---5-2--------|
--------------------------------------------------5-3-0--|

---------------------------------------------------------|
---------------------------------------------------------|
--------------------2-0---------------------------0-2-0--|	x1
-5-2-0-2--0-5-2-0-2-----2--5-2-0-2--0-5-2-----0-2--------|
------------------------------------------0-2------------|
---------------------------------------------------------|

---------------------------------------------------------|
---------------------------------------------------------|
--------------------2-0----------------------------------|	x1
-5-2-0-2--0-5-2-0-2-----2--5-2-0-2--0-5-2---2------------|
------------------------------------------5---5-2--------|
--------------------------------------------------5-3-0--|

--------------------------------------------------------------------------|
--------------------------------------------------------------------------|
-------------------2-0--------------------------------------------2-0-----|	x1
5-2-0-2--0-5-2-0-2-----2--5-2-0-2--0-5-0-0-1---5-2-0-2--0-5-2-0-2-----2s--|
--------------------------------------------------------------------------|
--------------------------------------------------------------------------|
            
Submit corrections


        Time Served lessons Hard to play? Try these video lessons and learn fast Time Served lessons
        
↑ Back to top | Tablatures and chords for acoustic guitar and electric guitar, ukulele, drums are parodies/interpretations of the original songs. You may use it for private study, scholarship, research or language learning purposes only