» » »

Descendents - Silly Girl Tabs

Artists:  A B C D E F G H I J K L M N O P Q R S T U V W X Y Z # 

Silly Girl Tabs

(ver. 1) Click to play this song!
Descendents
 Rating:
4/5 (4 votes)

 Silly Girl lessons Tabs too difficult? Try these video lessons and learn fast
 
                main riff
e-|-------------------------|
B-|-------------------------|
G-|-------------------------|
D-|-------------------------|
A-|-2h4-2-3h5-3-2h4-2-7-5-3-|
E-|-------------------------|

verse:
e-|--------------------------------------
B-|--------------------------------------
G-|-----------------5-5-5-5-5-5-5-5-5----
D-|-5-5-5-5-5-5-5-5-5-5-5-5-5-5-5-5-5----
A-|-5-5-5-5-5-5-5-5-3-3-3-3-3-3-3-3-3-etc
E-|-3-3-3-3-3-3-3-3----------------------

chorus:
e-|-------------------------------------------------------------------
B-|-------------------------------------------------------------------
G-|-------------7-7-7-7-7-7-7-7-7-7-7-7-7-7-7-------------------------
D-|-------------7-7-7-7-7-7-7-7-7-7-7-7-7-7-7-------------5-5-5-5-5-5-
A-|-2h4-2-3h5-3-5-5-5-5-5-5-5-5-5-5-5-5-5-5-5-2h4-2-3h5-3-5-5-5-5-etc-
E-|-------------------------------------------------------3-3-3-3-3-3-
            
Submit corrections


        Silly Girl lessons Hard to play? Try these video lessons and learn fast Silly Girl lessons
        
↑ Back to top | Tablatures and chords for acoustic guitar and electric guitar, ukulele, drums are parodies/interpretations of the original songs. You may use it for private study, scholarship, research or language learning purposes only