» » »

Derek And The Dominos - Nobody Knows You When Youre Down And Out Tabs

Artists:  A B C D E F G H I J K L M N O P Q R S T U V W X Y Z # 

Nobody Knows You When Youre Down And Out Tabs

(ver. 2) Click to play this song!
Derek And The Dominos
 Rating:
4/5 (4 votes)


 Nobody Knows You When Youre Down And Out lessons Tabs too difficult? Try these video lessons and learn fast
 
                12/10/2008

Derek And The Dominos
"Nobody Knows You When You're Down And Out" (Solo)
Layla and Other Assorted Love Songs  '1970'
Originally performed by: Eric Clapton



2:40
E-------------------------15b(17)rb15----------------------------------------------|
B------13-13--15b(17)~~~---------------15b(17)rb15--13h15p13-----------------------|
G--/14-------------------------------------------------------14~~~-----------------|
D----------------------------------------------------------------------------------|
A----------------------------------------------------------------------------------|
E----------------------------------------------------------------------------------|


2:48
E----------------------------------------------------------------------------------|
B----------------------------------------------------------------------------------|
G--10-12--12b(14)--12b--12b--12b~~--12b~~--12b(14)rb12--10-------------------------|
D----------------------------------------------------------12~~~-----12\-----------|
A----------------------------------------------------------------------------------|
E----------------------------------------------------------------------------------|


2:57
E----------------13----15b(17)~~~--(17)rb15~~~--15b(17)rb15------------------------|
B----------13-13----13---------------------------------------15b(17)rb15--13~~~----|
G--15b(17)-------------------------------------------------------------------------|
D----------------------------------------------------------------------------------|
A----------------------------------------------------------------------------------|
E----------------------------------------------------------------------------------|


3:06
E-------------------------------------------------------------------------------------------------|
B------13-13------13-13------13-13-----------------------------11-8-------------------------------|
G--/14--------/14--------/14--------10b(12)--10b-10b-10b-10b--------10b(12)--8b(9)----------------|
D----------------------------------------------------------------------------------10-8-----------|
A---------------------------------------------------------------------------------------10-8-6----|
E----------------------------------------------------------------------------------------------8--|


3:13
E----------------------------------------------------------------------------------|
B----------------------------------------------------------------------------------|
G-------------------------------------12--12h14~~~--12h14-12-----------------------|
D--8/10~~~--10/12--12h14-12~~~--12/14-------------------------14\12-10-------------|
A----------------------------------------------------------------------12~~~-------|
E----------------------------------------------------------------------------------|


3:23
E----------------------------------------------------------------------------------|
B--10--13p10--13b(15)~~~rb13-------------------------------------------------------|
G--10-------------------------12b(14)rb12p10---------------------------------------|
D--------------------------------------------12-12---------------------------------|
A----------------------------------------------------------------------------------|
E----------------------------------------------------------------------------------|


3:27
E----------------------------------------------------------------------------------|
B----------------------------------------------------------------------------------|
G----------------------------------------------------------------------------------|
D---------10-10-10-10---------10-10-10-10---------10-10-10\------------------------|
A--10h12---------------10h12---------------10h12-----------------------------------|
E----------------------------------------------------------------------------------|


3:30
E---------13---------13-13--15--15b(17)--15b(17)~~--15b(17)rb15~~~----------------------------|
B------13----16b(18)-------------------------------------------------15b(17)rb15p13-13-13-15--|
G--/14----------------------------------------------------------------------------------------|
D---------------------------------------------------------------------------------------------|
A---------------------------------------------------------------------------------------------|
E---------------------------------------------------------------------------------------------|


3:39
E----------------------------------------------------------------------------------|
B------13-13------13-13------13-13------13\/(13)-----------------------------------|
G--/14--------/14--------/14--------/14--------------------------------------------|
D----------------------------------------------------------------------------------|
A----------------------------------------------------------------------------------|
E----------------------------------------------------------------------------------|


3:44
E--13b(15)--13b(15)rb-13-11--------------------------------------------------------|
B----------------------------13-11-------------------------------------------------|
G----------------------------------12\10-8-10-8------------------------------------|
D-----------------------------------------------10-8-------------------------------|
A----------------------------------------------------10\8-6------------------------|
E-----------------------------------------------------------8-6-8~~~-------8\------|
            
Submit corrections



        Nobody Knows You When Youre Down And Out lessons Hard to play? Try these video lessons and learn fast Nobody Knows You When Youre Down And Out lessons
        
↑ Back to top | Tablatures and chords for acoustic guitar and electric guitar, ukulele, drums are parodies/interpretations of the original songs. You may use it for private study, scholarship, research or language learning purposes only