» » »

Deportivo - La Colline Tabs

Artists:  A B C D E F G H I J K L M N O P Q R S T U V W X Y Z # 

La Colline Tabs

(ver. 1) Click to play this song!
Deportivo
 Rating:
4/5 (4 votes)

 La Colline lessons Tabs too difficult? Try these video lessons and learn fast
 
                -------------------------------------------------------------------------------
-------------------------------------------------------------------------------

Tuning:Standard

Updated.


Easy but awesome song. cr*ppy distortion. Get ready !

Intro :

e|----------------------------------|-----------------------------------|
B|----------------------^--^--^--^--|-----------------------^--^--^--^--|
G|-8--8--8--8----8--8---8--8--8--8--|-8--8--8--8----8--8---12-12-12-12--|
D|-8--8--8--8----8--8---------------|-8--8--8--8----8--8----------------|
A|-6--6--6--6----6--6---------------|-6--6--6--6----6--6----------------|
E|----------------------------------|-----------------------------------|

e|----------------------------------|----------------------11-11-11-11--|
B|----------------------^--^--^--^--|-----------------------------------|
G|-8--8--8--8----8--8---8--8--8--8--|-8--8--8--8----8--8----------------|
D|-8--8--8--8----8--8---------------|-8--8--8--8----8--8----------------|
A|-6--6--6--6----6--6---------------|-6--6--6--6----6--6----------------|
E|----------------------------------|-----------------------------------|

Bend progressively without releasing the string.

Verse :

There are 3 chords : Cm G# A# and again Cm. You can play the whole bar chord
but I think it's better if you play only the 3 high strings.
For the rhythm, you better listen to the song, it's hard to explain. You play 4 times 
the chord, wait 3 times and you play the following chord.

Heavy distortion

   Cm         G#         A#         Cm
e|-3-3-3-3----4-4-4-4----6-6-6-6----8-8-8-8-|
B|-4-4-4-4----4-4-4-4----6-6-6-6----8-8-8-8-|
G|-5-5-5-5----5-5-5-5----7-7-7-7----8-8-8-8-|
D|------------------------------------------|
A|------------------------------------------|
E|------------------------------------------|

Chorus :

Strum fast.

   Cm                      G#
e|-3--3--3--3--3--3--3--3--4--4--4--4--4--4--4--4--|
B|-4--4--4--4--4--4--4--4--4--4--4--4--4--4--4--4--|
G|-5--5--5--5--5--5--5--5--5--5--5--5--5--5--5--5--|
D|-5--5--5--5--5--5--5--5--6--6--6--6--6--6--6--6--|
A|-3--3--3--3--3--3--3--3--6--6--6--6--6--6--6--6--|
E|-------------------------4--4--4--4--4--4--4--4--|

   A#                      Cm
e|-6--6--6--6--6--6--6--6--8--8--8--8--8--8--8--8--|
B|-6--6--6--6--6--6--6--6--8--8--8--8--8--8--8--8--|
G|-7--7--7--7--7--7--7--7--8--8--8--8--8--8--8--8--|
D|-8--8--8--8--8--8--8--8--10-10-10-10-10-10-10-10-|
A|-8--8--8--8--8--8--8--8--10-10-10-10-10-10-10-10-|
E|-6--6--6--6--6--6--6--6--8--8--8--8--8--8--8--8--|

Solo :

Last part, the final solo, very easy :

e|------------------------------------------------------|
B|-8-8-8-8-9--9-/11--9-8--------------------------------|
G|-----------------------10-10-10-10-10/12--10--8-------|
D|------------------------------------------------------|
A|------------------------------------------------------|
E|------------------------------------------------------|

e|------------------------------------------------------|
B|-8-8-8-8-9--9-/11--9-8------------------8-let-ring----|
G|-----------------------10-10-10-10-8--8---------------|
D|------------------------------------------------------|
A|------------------------------------------------------|
E|------------------------------------------------------|

e|----------------------------------|-----------------------------------|
B|----------------------^--^--^--^--|-----------------------^--^--^--^--|
G|-8--8--8--8----8--8---8--8--8--8--|-8--8--8--8----8--8---12-12-12-12--|
D|-8--8--8--8----8--8---------------|-8--8--8--8----8--8----------------|
A|-6--6--6--6----6--6---------------|-6--6--6--6----6--6----------------|
E|----------------------------------|-----------------------------------|

e|----------------------------------|----------------------11-11-11-11--|
B|----------------------^--^--^--^--|-----------------------------------|
G|-8--8--8--8----8--8---8--8--8--8--|-8--8--8--8----8--8----------------|
D|-8--8--8--8----8--8---------------|-8--8--8--8----8--8----------------|
A|-6--6--6--6----6--6---------------|-6--6--6--6----6--6----------------|
E|----------------------------------|-----------------------------------|

e|--11~-----------13~----11--11--11~----8~----13~----11--11-11--11-11|
B|---------11~---------------16--------------------------------------|
G|-------------------------------------------------------------------|
D|-------------------------------------------------------------------|
A|-------------------------------------------------------------------|
E|-------------------------------------------------------------------|

That's all folks !
            
Submit corrections


        La Colline lessons Hard to play? Try these video lessons and learn fast La Colline lessons
        
↑ Back to top | Tablatures and chords for acoustic guitar and electric guitar, ukulele, drums are parodies/interpretations of the original songs. You may use it for private study, scholarship, research or language learning purposes only