» » »

Depeche Mode - Personal Jesus Tabs

Artists:  A B C D E F G H I J K L M N O P Q R S T U V W X Y Z # 

Personal Jesus Tabs

(ver. 3) Click to play this song!
Depeche Mode
 Rating:
4/5 (4 votes)


 Personal Jesus lessons Tabs too difficult? Try these video lessons and learn fast
 
                Depeche Mode - Personal Jesus (Acoustic)

This is probably not the "accurate" way to play it but I like it. I saw the DVD and the
rift is correct but all the other stuff I'm not sure of. Just feel free to change the
chords up, this is just to give you a complete guide of the song. I tried to line it up
but it didn't work out to well. You'll figure it out. Please leave good rating. Thanks!

e|--------------------------------|-----------------------------|-----------------------------|
B|--------------------------------|-----------------------------|-----------------------------|
G|--------------------------------|-----------------------------|-----------------------------|
D|----------2---------------2-----|-------2--------------2------|-------2--------------2------|
A|--------------------------------|-----------------------------|-----------------------------|
E|--0--3-0----3-0--0--3--0----3-0-|--3-0----3-0--0--3--0----3-0-|--3-0----3-0--0--3--0----3-0-|

e|------------------------------|-----------------------------|-----------------------------|
B|------------------------------|-----------------------------|-----------------------------|
G|------------------------------|-----------------------------|-----------------------------|
D|--------2---------------2-----|-------2--------------2------|-------2--------------2------|
A|------------------------------|-----------------------------|-----------------------------|
E|---3-0----3-0--0--3--0----3-0-|--3-0----3-0--0--3--0----3-0-|--3-0----3-0--0--3--0----3-0-|
                            Your own           personal          Jesus
e|------------------------------|-----------------------------|-------------------------------|
B|------------------------------|-----------------------------|-------------------------------|
G|------------------------------|--------2--------------------|-------------------------------|
D|--------2---------------2-----|-----------------------------|---------2--------------2------|
A|------------------------------|-0-3-0----3-0--2-2-2--0-0-0--|-------------------------------|
E|---3-0----3-0--0--3--0----3-0-|---------------3-3-3--2-2-2--|-0--3-0----3-0--0--3--0----3-0-|
     someone to hear your prayers                          Your own  personal
                      someone who cares 
e|------------------------------|-----------------------------|-----------------------------|
B|------------------------------|-----------------------------|-----------------------------|
G|------------------------------|-----------------------------|--------2--------------------|
D|--------2---------------2-----|-------2--------------2------|-----------------------------|
A|------------------------------|-----------------------------|-0-3-0----3-0--2-2-2--0-0-0--|
E|---3-0----3-0--0--3--0----3-0-|--3-0----3-0--0--3--0----3-0-|---------------3-3-3--2-2-2--|
       Jesus                      someone to hear your prayers
                                               someoone who's there
e|------------------------------|-----------------------------|-----------------------------|
B|------------------------------|-----------------------------|-----------------------------|
G|------------------------------|-----------------------------|-----------------------------|
D|---------2---------------2----|-------2--------------2------|-------2--------------2------|
A|------------------------------|-----------------------------|-----------------------------|
E|-0--3-0----3-0--0--3--0---3-0-|--3-0----3-0--0--3--0----3-0-|--3-0----3-0--0--3--0----3-0-|
Feeling unknown
                                                                 and you're 
                                                                  all alone
                                                                                   
e|-------------------------|-2--2-----2--------2--------2-|-----0------------0------|
B|-------------------------|-3--3-----3--------3--------3-|-----1------------1------|
G|-----------------------0-|-2--------2--------2--------2-|-----2------------2------|
D|--0--0---0--0---0--0---0-|-0-----------------0----------|-----2------------2------|
A|--2--2---2--2---2--2---2-|------------------------------|-------------------------|
E|--3--3---3--3---3--3-----|------------------------------|-------------------------|
   Flesh and bone by the     telephone lift up the reciever I'll make you a 
                                                               Believer

e|------------------------------|-----------------------------|
B|------------------------------|-----------------------------|
G|------------------------------|-----------------------------|
D|---------2---------------2----|-------2--------------2------|
A|------------------------------|-----------------------------|
E|-0--3-0----3-0--0--3--0---3-0-|--3-0----3-0--0--3--0----3-0-|
                                   Take second best put 
                                              me to the test
e|-------------------------|-2--2-----2--------2--------2-|-----0------------0------|
B|-------------------------|-3--3-----3--------3--------3-|-----1------------1------|
G|-----------------------0-|-2--------2--------2--------2-|-----2------------2------|
D|--0--0---0--0---0--0---0-|-0-----------------0----------|-----2------------2------|
A|--2--2---2--2---2--2---2-|------------------------------|-------------------------|
E|--3--3---3--3---3--3-----|------------------------------|-------------------------|
  Things on your chest                I will deliver you know I'm a forgiver
       you need to confess
e|------------------------------|------------0--------------------|
B|------------------------------|-2-2--2--2--2---1--1---1--1---1--|
G|------------------------------|-3-3--3--3--3---2--2---2--2---2--|
D|---------2---------------2----|-4-4--4--4--4---3--3---3--3---3--| (x2)
A|------------------------------|-4-4------------3--3---3--3---3--|
E|-0--3-0----3-0--0--3--0---3-0-|---------------------------------|
                                               Reach out and 
                                                     touch faith           
e|-------------------------------|-----------------------------|-----------------------------|
B|-------------------------------|-----------------------------|-----------------------------|
G|-------------------------------|-----------------------------|-----------------------------|
D|---------2---------------2-----|-------2--------------2------|-------2--------------2------|
A|-------------------------------|-----------------------------|-----------------------------|
E|-0--3-0----3-0--0--3--0----3-0-|--3-0----3-0--0--3--0----3-0-|--3-0----3-0--0--3--0----3-0-|
                             Your own      personal               Jesus
e|------------------------------|-----------------------------|-------------------------------|
B|------------------------------|-----------------------------|-------------------------------|
G|------------------------------|--------2--------------------|-------------------------------|
D|--------2---------------2-----|-----------------------------|---------2--------------2------|
A|------------------------------|-0-3-0----3-0--2-2-2--0-0-0--|-------------------------------|
E|---3-0----3-0--0--3--0----3-0-|---------------3-3-3--2-2-2--|-0--3-0----3-0--0--3--0----3-0-|
    Someone to hear your prayers                       Your own      personal
                     someone who cares
e|------------------------------|-----------------------------|-----------------------------|
B|------------------------------|-----------------------------|-----------------------------|
G|------------------------------|-----------------------------|--------2--------------------|
D|--------2---------------2-----|-------2--------------2------|-----------------------------|
A|------------------------------|-----------------------------|-0-3-0----3-0--2-2-2--0-0-0--|
E|---3-0----3-0--0--3--0----3-0-|--3-0----3-0--0--3--0----3-0-|---------------3-3-3--2-2-2--|
     Jesus                        someone to hear your prayers
                                                   someone who there
e|------------------------------|-----------------------------|-----------------------------|
B|------------------------------|-----------------------------|-----------------------------|
G|------------------------------|-----------------------------|-----------------------------|
D|---------2---------------2----|-------2--------------2------|-------2--------------2------|
A|------------------------------|-----------------------------|-----------------------------|
E|-0--3-0----3-0--0--3--0---3-0-|--3-0----3-0--0--3--0----3-0-|--3-0----3-0--0--3--0----3-0-|

e|----------------------------|-----------------------------|
B|----------------------------|-----------------------------|
G|----------------------------|-----------------------------|
D|-------2---------------2----|-------2--------------2------|
A|----------------------------|-----------------------------|
E|--3-0----3-0--0--3--0---3-0-|--3-0----3-0--0--3--0----3-0-|
                                Feeling unknown and you're
                                                   All alone
e|-------------------------|-2--2-----2--------2--------2-|-----0------------0------|
B|-------------------------|-3--3-----3--------3--------3-|-----1------------1------|
G|-----------------------0-|-2--------2--------2--------2-|-----2------------2------|
D|--0--0---0--0---0--0---0-|-0-----------------0----------|-----2------------2------|
A|--2--2---2--2---2--2---2-|------------------------------|-------------------------|
E|--3--3---3--3---3--3-----|------------------------------|-------------------------|
  Flesh and bone by the     Telephone  Lift up the receiver I'll make you a 
                                                                     believer        

e|------------------------------|-2------------2---------2--------2----|
B|------------------------------|-3------------3---------3--------3----|
G|------------------------------|-2------------2---------2--------2----|
D|---------2---------------2----|-0----------------------0-------------|
A|------------------------------|--------------------------------------|
E|-0--3-0----3-0--0--3--0---3-0-|--------------------------------------|
                                 I will deliver you know I'm a forgiver

e|------------------------------|------------0--------------------|
B|------------------------------|-2-2--2--2--2---1--1---1--1---1--|
G|------------------------------|-3-3--3--3--3---2--2---2--2---2--|
D|---------2---------------2----|-4-4--4--4--4---3--3---3--3---3--| (x4)
A|------------------------------|-4-4------------3--3---3--3---3--|
E|-0--3-0----3-0--0--3--0---3-0-|---------------------------------|
                                               Reach out and 
                                                     touch faith
e|------------------------------|------------0--------------------0--|
B|------------------------------|-2-2--2--2--2---1-----1-------0-----|
G|------------------------------|-3-3--3--3--3---2-----2------0------|
D|---------2---------------2----|-4-4--4--4--4---3-----3-----2-------|
A|------------------------------|-4-4------------3-----3----2--------|
E|-0--3-0----3-0--0--3--0---3-0-|------------------------------------|
                                               Reach out and 
                                                     touch faith
            
Submit corrections



        Personal Jesus lessons Hard to play? Try these video lessons and learn fast Personal Jesus lessons
        
↑ Back to top | Tablatures and chords for acoustic guitar and electric guitar, ukulele, drums are parodies/interpretations of the original songs. You may use it for private study, scholarship, research or language learning purposes only