» » »

Demon Hunter - Tide Began To Rise Tabs

Artists:  A B C D E F G H I J K L M N O P Q R S T U V W X Y Z # 

Tide Began To Rise Tabs

(ver. 1) Click to play this song!
Demon Hunter
 Rating:
4/5 (4 votes)


 Tide Began To Rise lessons Tabs too difficult? Try these video lessons and learn fast
 
                -This song is a little different from the album version.
-I didn’t exactly do the rhythm but you can find it no problem.
-I don’t have the other guitar tabbed out yet. But it’s pretty simple. All it is, is strumming.

Guitar 1:
E|----------------------------------------------------------------|
B|----------------------------------------------------------------|
G|-7---7-9-7-9-10---7---7-9-7-9-10--5---5-7-5-7-9---5---5-7-5-7-9-| 2x
D|---7----------------7---------------5---------------5-----------|
A|----------------------------------------------------------------|
D|----------------------------------------------------------------|


|----------------------------------|
|-2-2-2-2-2-2-2-2--1-1-1-1-1-1-1-1-|
|-3-3-3-3-3-3-3-3--0-0-0-0-0-0-0-0-|
|-0-0-0-0-0-0-0-0--2-2-2-2-2-2-2-2-|
|----------------------------------|
|----------------------------------|


|--------------------------------------------|
|--------------------------------------------|
|-7---7-9-7-9-10---7---7-9-7-9-10—-----------|
|---7----------------7-------------8-7—-10-8-|
|----------------------------------8-7—-10-8-|
|----------------------------------8-7—-10-8-|


|----------------------------------------------------------------|
|----------------------------------------------------------------|
|-7---7-9-7-9-10---7---7-9-7-9-10--5---5-7-5-7-9---5---5-7-5-7-9-|
|---7----------------7---------------5---------------5-----------|
|----------------------------------------------------------------|
|----------------------------------------------------------------|


|-----------------------------------|
|-----------------------------------|
|-------------------5-5-5-5-5-5-5-5-|
|-9-9-9-9--3-3-3-3--5-5-5-5-5-5-5-5-|
|-9-9-9-9--3-3-3-3--3-3-3-3-3-3-3-3-|
|-9-9-9-9--3-3-3-3------------------|


|----------------------------------|
|----------------------------------|
|-5/7-7--5-5-5-5--3-3-3-3--1-1-1-1-|
|-5/7-7--5-5-5-5--3-3-3-3--1-1-1-1-|
|-3/5-5--3-3-3-3--1-1-1-1--3-3-3-3-|
|----------------------------------|


|-----------------------------------------|
|-----------------------------------------|
|-5/7-7--7-7-7-7-7-7-7-7--2-2-2-2-2-2-2-2-|
|-5/7-7--7-7-7-7-7-7-7-7--2-2-2-2-2-2-2-2-|
|-3/5-5--5-5-5-5-5-5-5-5--0-0-0-0-0-0-0-0-|
|-----------------------------------------|

|----------------------------------------------------------------|
|----------------------------------------------------------------|
|-7---7-9-7-9-10---7---7-9-7-9-10--5---5-7-5-7-9---5---5-7-5-7-9-|
|---7----------------7---------------5---------------5-----------|
|----------------------------------------------------------------|
|----------------------------------------------------------------|


|----------------------------------|
|-2-2-2-2-2-2-2-2--1-1-1-1-1-1-1-1-|
|-3-3-3-3-3-3-3-3--0-0-0-0-0-0-0-0-|
|-0-0-0-0-0-0-0-0--2-2-2-2-2-2-2-2-|
|----------------------------------|
|----------------------------------|


|--------------------------------------------|
|--------------------------------------------|
|-7---7-9-7-9-10---7---7-9-7-9-10—-----------|
|---7----------------7-------------8-7—-10-8-|
|----------------------------------8-7—-10-8-|
|----------------------------------8-7—-10-8-|


|----------------------------------------------------------------|
|----------------------------------------------------------------|
|-7---7-9-7-9-10---7---7-9-7-9-10--5---5-7-5-7-9---5---5-7-5-7-9-|
|---7----------------7---------------5---------------5-----------|
|----------------------------------------------------------------|
|----------------------------------------------------------------|


|-----------------------------------|
|-----------------------------------|
|-------------------5-5-5-5-5-5-5-5-|
|-9-9-9-9--3-3-3-3--5-5-5-5-5-5-5-5-|
|-9-9-9-9--3-3-3-3--3-3-3-3-3-3-3-3-|
|-9-9-9-9--3-3-3-3------------------|


|----------------------------------|
|----------------------------------|
|-5/7-7--5-5-5-5--3-3-3-3--5-5-5-5-|
|-5/7-7--5-5-5-5--3-3-3-3--5-5-5-5-|
|-3/5-5--3-3-3-3--1-1-1-1--3-3-3-3-|
|----------------------------------|


|-----------------------------------------|
|-----------------------------------------|
|-5/7-7--7-7-7-7-7-7-7-7--2-2-2-2-2-2-2-2-|
|-5/7-7--7-7-7-7-7-7-7-7--2-2-2-2-2-2-2-2-|
|-3/5-5--5-5-5-5-5-5-5-5--0-0-0-0-0-0-0-0-|
|-----------------------------------------|


|------------------------------------------------------------------------|
|------------------------------------------------------------------------|
|-7-7-7-7-5-3-5-7-5-3-7-7-7-7-7-10-10-10-10-10-12-12-10-7-7-7-7-7-5-3-5-3| 
|-0-0-0-0-0-0-0-0-0-0-0-0-0-0-0--0—-0—-0--0—-0—-0—-0-—0—0-0-0-0-0-0-0-0-0|12x
|------------------------------------------------------------------------|
|------------------------------------------------------------------------|
            
Submit corrections



        Tide Began To Rise lessons Hard to play? Try these video lessons and learn fast Tide Began To Rise lessons
        
↑ Back to top | Tablatures and chords for acoustic guitar and electric guitar, ukulele, drums are parodies/interpretations of the original songs. You may use it for private study, scholarship, research or language learning purposes only