» » »

Deftones - Beauty School Tabs

Artists:  A B C D E F G H I J K L M N O P Q R S T U V W X Y Z # 

Beauty School Tabs

(ver. 1) Click to play this song!
Deftones
 Rating:
4.4/5 (7 votes)

 Beauty School lessons Tabs too difficult? Try these video lessons and learn fast
 
                
Tuning:CGCFAD

Intro  0.00-0.22

Guitar 1
D|----4--8---4---6---------4--8---4---6---|X2 |----4-4/| 
A|-6--------------------6---------------6-|   |-6------|
F|----------------------------------------|   |--------|
C|----------------------------------------|   |--------|
G|----------------------------------------|   |--------|
C|----------------------------------------|   |--------|

Guitar2 (a set of chords?)
D|----------------------------------------------------|
A|----------------------------------------------------|
F|----------------------------------------------------|
C|----------------------------------------------------|
G|----------------------------------------------------|
C|----------------------------------------------------|


Verse  0.22-0.40

Guitar 1
D|-/8-8-8-8-8-8-8-8-----------------------------------| X7
A|----------------------------------------------------|
F|----------------------------------------------------|
C|----------------------------------------------------|
G|----------------------------------------------------|
C|----------------------------------------------------|

Guitar2
D|----------------------------------------------------|
A|----6-6-6-------------------------------------------|
F|----------5-5-5-5~~---------------------------------| X7
C|----------------------------------------------------|
G|----------------------------------------------------|
C|----------------------------------------------------|

Verse (cont) 0.40-0.49
Guitar 1
D|-8-8-8-8-8\-3333/4-4444444/6-6666666/8-8[x16]-------|
A|----------------------------------------------------|
F|----------------------------------------------------|
C|----------------------------------------------------|
G|----------------------------------------------------|
C|----------------------------------------------------|


Pre-chorus 0.49-0.58 

          ^           ^           ^           ^ bend
D|-11--1111---11--1111---11--1111---11--1111----------|
A|--9---9-9----9---9-9----9---9-9----9---9-9----------|
F|--8---8-8----8---8-8----8---8-8----8---8-8----------|
C|----------------------------------------------------|
G|----------------------------------------------------|
C|----------------------------------------------------|


Chorus 0.58-1.29

Guitar 1
D|----------------------------------------------------|
A|----------------------------------------------------|
F|--8-[x32] -5-[x16]--8-[x32]--10-[x32]---------------|
C|--6--------3--------6--------8----------------------|
G|--6--------3--------6--------8----------------------|
C|--6--------3--------6--------8----------------------|
[x##] <--denotes number of times to play that chord

Guitar 2
D|--11-[x32]-8-[x16]--8--[x32]-13-[x32]---------------|
A|--9--------6--------9--------11---------------------|
F|--8--------5--------8--------10---------------------|
C|----------------------------------------------------|
G|----------------------------------------------------|
C|----------------------------------------------------|

Guitar 3 (can be played simultaneously with Guitar 1)
d|--8[x32]-6[x16]-8[x32]-6[x32]-----------------------|
A|--9------6------9------6----------------------------|
F|--8------5------8------5----------------------------|
C|----------------------------------------------------|
G|----------------------------------------------------|
C|----------------------------------------------------|
Prechorus 1.29 - 1.38 ~~
Intro 1.42-1.52
Verse 1.52-2.09
Verse (cont) 2.09-2.19
Prechorus 2.19-2.28
Chorus 2.28 - 2.58
Intro 2.58- 3.07

Modified Chorus 3.07-4.11
Guitar 3 plays this under the chorus section more prominently this time around.

Guitar 3
   x1
d|---|--8[x32]-6[x16]-8[x32]-6[x32]-------------------| X2
A|---|--9------6------9------6------------------------|
F|---|--8------5------8------5------------------------|
C|---|------------------------------------------------|
G|-3-|------------------------------------------------|
C|-3-|------------------------------------------------|




Outro
4.11-4.44 (still very rough)


4.11-4.14
D|----------------------------------------------------|
A|----8-8-8-8-8-8-8-8---------------------------------|
F|----------------------------------------------------|
C|----------------------------------------------------|
G|----------------------------------------------------|
C|----------------------------------------------------|


4.14
D|------8---8---8---8---------------------------------|
A|--9-9---9---9---9---9-------------------------------|
F|-----------------------8----------------------------|
C|----------------------------------------------------|
G|----------------------------------------------------|
C|----------------------------------------------------|


4.17
D|--------8---8---8---8-------------------------------|
A|----9-9---9---9---9---9-----------------------------|
F|------------------------8--8-8-8-8------------------|
C|----------------------------------------------------|
G|----------------------------------------------------|
C|----------------------------------------------------|

d|-------------8---8---8---8--------------------------|
A|---------------9---9---9---9------------------------|
F|-8--8-8-8-8-----------------------------------------|
C|----------------------------------------------------|
G|----------------------------------------------------|
C|----------------------------------------------------|

************************************

| /   slide up
| \   slide down
| h   hammer-on
| p   pull-off
| ~   vibrato
| +   harmonic
| x   Mute note
| b   Bend
| pb  Pre-bend
| br  Bend release
| pbr Pre-bend release
| brb Bend release bend

************************************
            
Submit corrections


        Beauty School lessons Hard to play? Try these video lessons and learn fast Beauty School lessons
        
↑ Back to top | Tablatures and chords for acoustic guitar and electric guitar, ukulele, drums are parodies/interpretations of the original songs. You may use it for private study, scholarship, research or language learning purposes only