» » »

Deerhunter - Basement Scene Bass

Artists:  A B C D E F G H I J K L M N O P Q R S T U V W X Y Z # 

Basement Scene Bass

(ver. 1) Click to play this song!
Deerhunter
 Rating:
3.2/5 (30 votes)

 Basement Scene lessons Tabs too difficult? Try these video lessons and learn fast
 
                INTRO
G|---------------------------------------------|
D|---------------------------------------------|
A|1-1-1-1-3-----1-1-1-1-3-----1-1-1-1--3-------|
E|-----------5-------------5--------------5-3--|

G|---------------------------------------------|
D|---------------------------------------------|
A|1-1-1-1-3----1-1-1-1-3------1-1-1-1--3-------|
E|-----------5-------------5--------------5-3--|

Dream a little dream...
G|-------------------------------------------|
D|----------3--3-----------------3--3--------|
A|1--1-3--3------5--5--1--1-3--3------5-5-5--|
E|-------------------------------------------|

I don't want to...
G|---------------------------------------------|
D|---------------------------------------------|
A|1-1-1-1-3-----1-1-1-1-3-----1-1-1-1--3-------|
E|-----------5-------------5--------------5-3--|

If you see..
G|-------------------------------------------|
D|----------3--3-----------------3--3--------|
A|1--1-3--3------5--5--1--1-3--3------5-5-5--|
E|-------------------------------------------|

I don't want to...
G|---------------------------------------------|
D|---------------------------------------------|
A|1-1-1-1-3-----1-1-1-1-3-----1-1-1-1--3-------|
E|-----------5-------------5--------------5-3--|


*Key Change* (00:59-01:36)
G|---------------------------------------------------------------------------------|
D|2--2-2-2--------------2--2-2-2--------------2--2-2-2-----------------------------|
A|---------4--4-4-2-0-2----------4--4-4-2-0-2----------4--4-4-2-0-2----------------|
E|-------------------------------------------------------------------3(x8)--5(x8)--|

G|---------------------------------------------------------------------------------|
D|2--2-2-2--------------2--2-2-2--------------2--2-2-2-----------------------------|
A|---------4--4-4-2-0-2----------4--4-4-2-0-2----------4--4-4-2-0-2----------------|
E|-------------------------------------------------------------------3(x8)--5(x8)--|

1:37...
G|---------------------------------------------|
D|---------------------------------------------|
A|1-1-1-1-3-----1-1-1-1-3-----1-1-1-1--3-------|
E|-----------5-------------5--------------5-3--|

Dream a little dream...
G|-------------------------------------------|
D|----------3--3-----------------3--3--------|
A|1--1-3--3------5--5--1--1-3--3------5-5-5--|
E|-------------------------------------------|

Now I wanna...
G|---------------------------------------------|
D|---------------------------------------------|
A|1-1-1-1-3-----1-1-1-1-3-----1-1-1-1--3-------|
E|-----------5-------------5--------------5-3--|

It could be...
G|-------------------------------------------|
D|----------3--3-----------------3--3--------|
A|1--1-3--3------5--5--1--1-3--3------5-5-5--|
E|-------------------------------------------|

I don't wanna...
G|---------------------------------------------|
D|---------------------------------------------|
A|1-1-1-1-3-----1-1-1-1-3-----1-1-1-1--3-------|
E|-----------5-------------5--------------5-3--|


*Key Change* (02:25-03:21)

G|-------------------------------------------------------------------|
D|2--2-2-2--------------2--2-2-2--------------2--2-2-2---------------|
A|---------4--4-4-2-0-2----------4--4-4-2-0-2----------4--4-4-2-0-2--|
E|-------------------------------------------------------------------|

In the bluffs...

G|---------------------------------------------------------------------------------|
D|2--2-2-2--------------2--2-2-2--------------2--2-2-2-----------------------------|
A|---------4--4-4-2-0-2----------4--4-4-2-0-2----------4--4-4-2-0-2----------------|
E|-------------------------------------------------------------------3(x8)--5(x8)--|

G|-----------------------------------------------------------------------------------------|
D|2--2-2-2--------------2--2-2-2--------------2--2-2-2-------------------------------------|
A|---------4--4-4-2-0-2----------4--4-4-2-0-2----------4--4-4-2-0-2------------------------|
E|0--0-0-0-----------------------------------------------------------5(x8)-7----5(x8)-7----|

   ^variation on E string i like to throw in the bluffs..
3:22 to end.
G|---------------------------------------------|
D|---------------------------------------------|
A|1-1-1-1-3-----1-1-1-1-3-----1-1-1-1--3-------|
E|-----------5-------------5--------------5-3--|
            
Submit corrections


        Basement Scene lessons Hard to play? Try these video lessons and learn fast Basement Scene lessons
        
↑ Back to top | Tablatures and chords for acoustic guitar and electric guitar, ukulele, drums are parodies/interpretations of the original songs. You may use it for private study, scholarship, research or language learning purposes only