» » »

Death Grips - On Gp Tabs

Artists:  A B C D E F G H I J K L M N O P Q R S T U V W X Y Z # 

On Gp Tabs

(ver. 1) Click to play this song!
Death Grips
 Rating:
4/5 (4 votes)

 On Gp  lessons Tabs too difficult? Try these video lessons and learn fast
 
                Intro
e|---------------------------------------------------------------------------|
B|---------------------------------------------------------------------------|
G|---------------------------------------------------------------------------|
D|---------------------------------------------------------------------------| x2
A|---5----------------3-------------------2--------------------5-------------|
E|---------------------------------------------------------------------------|

Intro Cont./Verse
e|----5----5----5-----3----3----3-----2----2----2-----5----5----5------------|
B|----5----5----5-----3----3----3-----2----2----2-----5----5----5------------|
G|----7----7----7-----5----5----5-----4----4----4-----7----7----7------------|
D|----7----7----7-----5----5----5-----4----4----4-----7----7----7------------| x6
A|----5----5----5-----3----3----3-----2----2----2-----5----5----5------------|
E|----5----5----5-----3----3----3-----2----2----2-----5----5----5------------|

Hook
e|---------------------------------------------------------------------------|
B|--------7~----------5~---------3-----------7~------------------------------|
G|----------------------------------4----------------------------------------|
D|----7------7\5--5-------5\4--4-------5/7-----------------------------------|
A|---------------------------------------------------------------------------|
E|---------------------------------------------------------------------------|\
                                                                               x4
e|----5----5----5-----3----3----3-----2----2----2-----5----5----5------------|/
B|----5----5----5-----3----3----3-----2----2----2-----5----5----5------------|
G|----7----7----7-----5----5----5-----4----4----4-----7----7----7------------|
D|----7----7----7-----5----5----5-----4----4----4-----7----7----7------------|
A|----5----5----5-----3----3----3-----2----2----2-----5----5----5------------|
E|----5----5----5-----3----3----3-----2----2----2-----5----5----5------------|

Bridge
Bass part played on guitar
e|---------------------------------------------------------------------------|
B|---------------------------------------------------------------------------|
G|---------------------------------------------------------------------------|
D|---------------------------------------------------------------------------| x6
A|----5-5-5-5-5---5---3h5-3-5--2--2-2-2-2-2-2--5--5--5-----------------------|
E|---------------------------------------------------------------------------|

e|----5-5-5-5-5---5-5-5-5-3-5--2--2-2-2-2-2-2--5--5--5--5--------------------|
B|----5-5-5-5-5---5-5-5-5-3-5--2--2-2-2-2-2-2--5--5--5--5--------------------|
G|----7-7-7-7-7---7-7-7-7-5-3--4--4-4-4-4-4-4--7--7--7--7--------------------|
D|----7-7-7-7-7---7-7-7-7-5-3--4--4-4-4-4-4-4--7--7--7--7--------------------| x2
A|----5-5-5-5-5---5-5-5-5-3-5--2--2-2-2-2-2-2--5--5--5--5--------------------|
E|----5-5-5-5-5---5-5-5-5-3-5--2--2-2-2-2-2-2--5--5--5--5--------------------|

Verse
e|----5----5----5-----3----3----3-----2----2----2-----5----5----5------------|
B|----5----5----5-----3----3----3-----2----2----2-----5----5----5------------|
G|----7----7----7-----5----5----5-----4----4----4-----7----7----7------------|
D|----7----7----7-----5----5----5-----4----4----4-----7----7----7------------| x4
A|----5----5----5-----3----3----3-----2----2----2-----5----5----5------------|
E|----5----5----5-----3----3----3-----2----2----2-----5----5----5------------|

Hook
e|---------------------------------------------------------------------------|
B|--------7~----------5~---------3-----------7~------------------------------|
G|----------------------------------4----------------------------------------|
D|----7------7\5--5-------5\4--4------5/7------------------------------------|
A|---------------------------------------------------------------------------|
E|---------------------------------------------------------------------------|\
                                                                               x2
e|----5----5----5-----3----3----3-----2----2----2-----5----5----5------------|/
B|----5----5----5-----3----3----3-----2----2----2-----5----5----5------------|
G|----7----7----7-----5----5----5-----4----4----4-----7----7----7------------|
D|----7----7----7-----5----5----5-----4----4----4-----7----7----7------------|
A|----5----5----5-----3----3----3-----2----2----2-----5----5----5------------|
E|----5----5----5-----3----3----3-----2----2----2-----5----5----5------------|

Bridge
e|---------------------------------------------------------------------------|
B|---------------------------------------------------------------------------|
G|---------------------------------------------------------------------------|
D|---------------------------------------------------------------------------| x4
A|----5-5-5-5-5---5---3h5-3-5--2--2-2-2-2-2-2-5-5-5-5-5-5-5h7-5--------------|
E|---------------------------------------------------------------------------|

Bridge/Solo
e|---------------------------------------------------------------------------|
B|---/15---/15---/15---/15---/15-----/15---/15---/15---/15--13--15-----------|
G|---------------------------------------------------------------------------|
D|---------------------------------------------------------------------------| x1
A|---------------------------------------------------------------------------| 
E|---------------------------------------------------------------------------|

e|------------------------------------5--5--5--5--5--5--5--5-----------------|
B|----12--12--12--12--12--12--12--12--5--5--5--5--5--5--5--5-----------------|
G|------------------------------------7--7--7--7--7--7--7--7-----------------|
D|------------------------------------7--7--7--7--7--7--7--7-----------------| x1
A|------------------------------------5--5--5--5--5--5--5--5-----------------| 
E|------------------------------------5--5--5--5--5--5--5--5-----------------|

e|---------------------------------------------------------------------------|
B|---/15---/15---/15---/15---/15-----/15---/15---/15---/15--13--15-----------|
G|---------------------------------------------------------------------------|
D|---------------------------------------------------------------------------| x1
A|---------------------------------------------------------------------------| 
E|---------------------------------------------------------------------------|

e|---------------------------------------------------------------------------|
B|----12--12--12--12--12--12--12--12--/15--/15--/15--/15--/15--/15--/15------|
G|---------------------------------------------------------------------------|
D|---------------------------------------------------------------------------| x1
A|---------------------------------------------------------------------------| 
E|---------------------------------------------------------------------------|

Intro variant
e|---------------------------------------------------------------------------|
B|---------------------------------------------------------------------------|
G|---------------------------------------------------------------------------|
D|---------------------------------------------------------------------------| x2
A|---5-----5-----5-----3-----3-----3-----2-----2-----2-----5-----5-----5-----|
E|---------------------------------------------------------------------------|

Hook
e|---------------------------------------------------------------------------|
B|--------7~----------5~---------3---------7~--------------------------------|
G|----------------------------------4----------------------------------------|
D|----7------7\5--5-------5\4--4------5/7------------------------------------|
A|---------------------------------------------------------------------------|
E|---------------------------------------------------------------------------|\
                                                                               x4
e|----5----5----5-----3----3----3-----2----2----2-----5----5----5------------|/
B|----5----5----5-----3----3----3-----2----2----2-----5----5----5------------|
G|----7----7----7-----5----5----5-----4----4----4-----7----7----7------------|
D|----7----7----7-----5----5----5-----4----4----4-----7----7----7------------|
A|----5----5----5-----3----3----3-----2----2----2-----5----5----5------------|
E|----5----5----5-----3----3----3-----2----2----2-----5----5----5------------|            
Submit corrections


        On Gp  lessons Hard to play? Try these video lessons and learn fast On Gp  lessons
        
↑ Back to top | Tablatures and chords for acoustic guitar and electric guitar, ukulele, drums are parodies/interpretations of the original songs. You may use it for private study, scholarship, research or language learning purposes only