» » »

Days Of The New - Shelf In The Room Chords

Artists:  A B C D E F G H I J K L M N O P Q R S T U V W X Y Z # 

Shelf In The Room Chords

(ver. 1) Click to play this song!
Days Of The New
 Rating:
3.1/5 (7 votes)


 Shelf In The Room lessons Tabs too difficult? Try these video lessons and learn fast
 
                


"Shelf in the Room" by Days of the New
Written by Travis Meeks
12/15/97

Tuning: C#-Ab-C#-F#-Bb-Eb

-----------------------------------|
-----------------------------------|
---2-----2-------4-----4---5^4---4-|     Part 'A'
-----0-----0-------0---------------|
-----------------------------------|
-0-----3-----3/5-----5---5-----5---|


-----------------------------------|
-----------------------------------|
---2-----2-------4-----------------|
-----0-----0-------0---0-----0---0-|     Part 'B'
-----------------------------------|
-0-----3-----3/5-----5---5-5---3---|


-----------------------------------|
-3-----3---3---0-------------------|
-2-----2---2---4-------------------|
-0-----0---0---0-------------0---0-|     Part 'C'
-0-----0---0---5-------------------|
-0-----3---3---5-----5-5-5-5---3---|


-----------------------------------|
-----------------------------------|
---2---5-------4-----4-----4---4---|     Part 'D'
-0---0---0-0-0---0-0---0-0---0-----|
-----------------------------------|
-----------------------------------|


-------------------5-----5---5-----|
-2-----2---2---0---0-----0---0-----|
-3-----3---3---4---4-----4---4-----|     'CHORDS'
-0-----0---0---0---0-----0---0-----|
-0-----0---0---5---5-----5---5-----|
-0-----3---3---5---5-----5---5-----|


Order:

   A A A B       Intro
   A A A C         "
   A A A B       Verse
   D D D C       Chorus

 (-B B A B       Verse
 ( A A A C         "
 ( CHORDS        Chorus
 ( CHORDS          "
 ( D D D D       Break
 (-A B A C

 (-B B A B       Verse 
 ( A A A C         "
 ( CHORDS        Chorus
 ( CHORDS          "
 ( CHORDS        Solo
 ( D D D D       Break
 (-A B A C       Verse

   A A A         Outro

I separated the parts above to show how the song's parts are arranged. 
If you look, you will notice that the middle two sections are the same.  
Also, the music under the first verse and chorus is NOT the same as the 
rest of the verses and choruses.  Very very sneaky!!! :) (And he almost 
got away with it!!!)

Enjoy! :)!

P.S.  If you want to tune your guitar to Db-Ab-Db-Gb-Bb-Db,
then one of the chords would be played (550407) instead of (550405).

Also, for part 'D', there are some different things you can play that 
still fit.  Here's my favorite:

-----------------------------------|
-----------------------------------|
---2---5---2-4-------4---5-4---4---|
-0---0---0-----0-0-0---0-----0-----|
-----------------------------------|
-----------------------------------|
            
Submit corrections



        Shelf In The Room lessons Hard to play? Try these video lessons and learn fast Shelf In The Room lessons
        
↑ Back to top | Tablatures and chords for acoustic guitar and electric guitar, ukulele, drums are parodies/interpretations of the original songs. You may use it for private study, scholarship, research or language learning purposes only