» » »

David Crowder Band - Only You Tabs

Artists:  A B C D E F G H I J K L M N O P Q R S T U V W X Y Z # 

Only You Tabs

(ver. 3) Click to play this song!
David Crowder Band
 Rating:
4/5 (4 votes)

 Only You lessons Tabs too difficult? Try these video lessons and learn fast
 
                h=hammeron
------------------------------|
--------1-------1h3--3--------|
------0---0------------0------|
--0h2-------2-------2-2-------|
3-----------------------------|
------------------------------|

--------0---------------------|
---2------3-1-0---------------|
--0-0----------2-0------------|
-0---0------------------------|
0h2---------------------------|
------------------------------|

----------------0-------------|
------0----0h1----0-----------|
----0---0---------------------|
--0h2-----2----2-2------------|
0-----------------------------|
------------------------------|

------------------------------|
--------1--------1------------|
----0-1---2-2-0----0----------|
-0h3------------2-2-----------|
------------------------------|
1-----------------------------|
            
Submit corrections


        Only You lessons Hard to play? Try these video lessons and learn fast Only You lessons
        
↑ Back to top | Tablatures and chords for acoustic guitar and electric guitar, ukulele, drums are parodies/interpretations of the original songs. You may use it for private study, scholarship, research or language learning purposes only