» » »

Dashboard Confessional - Stolen Bass

Artists:  A B C D E F G H I J K L M N O P Q R S T U V W X Y Z # 

Stolen Bass

(ver. 1) Click to play this song!
Dashboard Confessional
 Rating:
4/5 (4 votes)


 Stolen lessons Tabs too difficult? Try these video lessons and learn fast
 
                stolen--dashboard confessional

tuning: G D A Eb (Eb ONLY or it won't sound right)

Intro
G |--------------------------------------|
D |--------------------------------------|
A |--66666666----------33333333----------|x2
Eb|-----------55555555----------55555555-|


Verse
G |-------------------------|-----------------|
D |-------------------------|-----------------|
A |--6~--------3~--------6h8|---------3(16x)--|
Eb|-------7~--------5~------|-0~--7~----------|


Chorus
G |--------------------------------------|
D |--------------------------------------|
A |--66666666----------33333333----------|x2
Eb|-----------55555555----------55555555-|


Verse
G |-------------------------------------|
D |-------------------------------------|
A |-------------------33333333----------|
Eb|--7777777777777777----------55555555-|

G |----------------------------------------------|
D |-----------------------------------------6666-|
A |-------------------33333333-------------------|
Eb|--7777777777777777----------555555555555------|


Chorus
G |--------------------------------------|
D |--------------------------------------|
A |--------------------33333333----------|x2
Eb|--00000000-55555555----------55555555-|


Bridge
G |-------------------------------------|
D |-------------------------------------|
A |-----------33333333------------------|x2
Eb|--00000000----------5555555555555555-|

G |---------------------|-----------------|
D |---------------------|-----------------|
A |--6~--------3~-------|---------3~------|
Eb|-------5~--------5~--|-0~--5~------5~--|

G |--------------------------------------|
D |--------------------------------------|
A |--66666666----------33333333----------|
Eb|-----------55555555----------55555555-|

G |--------------------------------------|
D |--------------------------------------|
A |--------------------33333333----------|x3
Eb|--00000000-55555555----------55555555-|


Chorus
G |--------------------------------------|
D |--------------------------------------|
A |--------------------33333333----------|x2
Eb|--00000000-55555555----------55555555-|

G |--------------------------------------|
D |-----------------------------66666666-|
A |--------------------33333333----------|
Eb|--00000000-55555555-------------------|


Ending
G |------|
D |------|
A |--6~--|
Eb|------|
            
Submit corrections



        Stolen lessons Hard to play? Try these video lessons and learn fast Stolen lessons
        
↑ Back to top | Tablatures and chords for acoustic guitar and electric guitar, ukulele, drums are parodies/interpretations of the original songs. You may use it for private study, scholarship, research or language learning purposes only