» » »

Dashboard Confessional - Remember To Breath Bass

Artists:  A B C D E F G H I J K L M N O P Q R S T U V W X Y Z # 

Remember To Breath Bass

(ver. 1) Click to play this song!
Dashboard Confessional
 Rating:
4/5 (4 votes)
                this is my first tab, so don't get all mad at me or anything if its terribly wrong...... but i dont think it is..

ok in the song this riff picks up after he says "....breath" but it doesnt matter you could play it the whole time if you wanted to


G----------------------------------------------------------
D----------------------------------------------------------
A-4-4-4--------------------------4-4-4---------------------
E-------5-5-5-5--4-4-4--5-5-5-5--------5-5-5-5--4-4-4-0~---


last time:
G--------------------------------------------------------
D--------------------------------------------------------
A-4-4-4-------------------------4-4-4--------------------
E-------5-5-5-5--4-4-4--5-5-5-5-------5-5-5-5--4-5-4-0~--

like i said this is my first tab... but i think that sounds correct
            
Submit corrections

↑ Back to top | Tablatures and chords for acoustic guitar and electric guitar, ukulele, drums are parodies/interpretations of the original songs. You may use it for private study, scholarship, research or language learning purposes only