» » »

Dark Tranquillity - The Mind's Eye Bass

Artists:  A B C D E F G H I J K L M N O P Q R S T U V W X Y Z # 

The Mind's Eye Bass

(ver. 1) Click to play this song!
Dark Tranquillity
 Rating:
4/5 (4 votes)


 The Mind's Eye lessons Tabs too difficult? Try these video lessons and learn fast
 
                -----------------------------------------------------------------------------
			     The Mind's Eye - Dark Tranquillity
-----------------------------------------------------------------------------

Arranged for a 4 string bass guitar in standard tuning

Tuning: Standard

Time Signature: 3/4

Key: D minor

-----------------------------------------------------------------------------

G|--7------7------|--10------10----|--9------10------|--7------7-----------|
D|----7------7----|----7-------7---|----7-------7----|----7------7---------|
A|------8------8--|------8-------8-|------8-------8--|------8------8-------|
E|----------------|----------------|-----------------|---------------------|

G|----------------|----------------|-----------------|---------------------|
D|--0-------------|--0-------------|-----------------|--0------------------|
A|----------------|----------------|--3--------------|---------------------|
E|----------------|----------------|-----------------|---------------------|



G|--7------7------|--10------10------|--9-------9-------|--7------7---------|
D|----8------8----|-----8-------8----|----8-------8-----|----7------7-------|
A|------8------8--|-------8-------8--|------10------10--|------8------8-----|
E|----------------|------------------|------------------|-------------------|

G|----------------|------------------|------------------|-------------------|
D|----------------|------------------|------------------|--0----------------|
A|--1-------------|--1---------------|------------------|-------------------|
E|----------------|------------------|--3---------------|-------------------|



G|--14---------14--------|--15----------17~---15--|--14---------12----------|
D|-----12---------12-----|-----14-----------------|-----12---------12-------|
A|--------13---------13--|---------15-------------|--------13---------12----|
E|-----------------------|------------------------|-------------------------|

G|-----------------------|--0---------------------|-------------------------|
D|--3--------------------|------------------------|--3-----------2----------|
A|-----------------------|------------------------|-------------------------|
E|-----------------------|------------------------|-------------------------|



G|--10---------10--------|--7-------7------|--9--------9-------|
D|-----------------------|----8-------8----|----8--------8-----|
A|-----12---------12-----|------8-------8--|------10-------10--|
E|--------13---------13--|-----------------|-------------------|

G|-----------------------|-----------------|-------------------|
D|--0--------------------|-----------------|-------------------|
A|-----------------------|--1--------------|--3----------------|
E|-----------------------|-----------------|-------------------|



G|--7-------9------|--7------7------|
D|----7-------7----|----7------7----|
A|------8-------8--|------8------8--|
E|-----------------|----------------|

G|-----------------|----------------|
D|--0--------------|--0-------------|
A|-----------3-----|----------------|
E|-----------------|----------------|




| /  slide up
| \  slide down
| h  hammer-on
| p  pull-off
| ~  vibrato
| +  harmonic
| x  Mute note
=============================================================================
            
Submit corrections



        The Mind's Eye lessons Hard to play? Try these video lessons and learn fast The Mind's Eye lessons
        
↑ Back to top | Tablatures and chords for acoustic guitar and electric guitar, ukulele, drums are parodies/interpretations of the original songs. You may use it for private study, scholarship, research or language learning purposes only