» » »

Darkest Hour - Demons Tabs

Artists:  A B C D E F G H I J K L M N O P Q R S T U V W X Y Z # 

Demons Tabs

(ver. 3) Click to play this song!
Darkest Hour
 Rating:
4/5 (6 votes)
                -------------------------------------------------------------------------------
                           DEMONS - Darkest Hour
-------------------------------------------------------------------------------

Tuning: CGCFAD

D|-19-16---19-16---21-16---19-16----19-16----19---21---19---18---------|
A|-------16------16------16-------16-------16----16---16---16---16-----|
F|---------------------------------------------------------------------|
C|---------------------------------------------------------------------|
G|---------------------------------------------------------------------|
C|---------------------------------------------------------------------|

D|-19-16---19-16---21-16---19-16---21-16---21-16---21---22---21---------|
A|-------17------17------17------17-------19------19---19---19---19-----|
F|----------------------------------------------------------------------|
C|----------------------------------------------------------------------|
G|----------------------------------------------------------------------|
C|----------------------------------------------------------------------|

D|-18----------------18-21-18-----------18-19------|
A|----15----------19----------19-----19------------|
F|--------------18-----------------18--------------|
C|-----------20------------------------------------|
G|--------21---------------------------------------|
C|-------------------------------------------------|


| /  slide up
| \  slide down
| h  hammer-on
| p  pull-off
| ~  vibrato
| +  harmonic
| x  Mute note
=============================================================
            
Submit corrections

↑ Back to top | Tablatures and chords for acoustic guitar and electric guitar, ukulele, drums are parodies/interpretations of the original songs. You may use it for private study, scholarship, research or language learning purposes only