» » »

Danzig - The Hunter Bass

Artists:  A B C D E F G H I J K L M N O P Q R S T U V W X Y Z # 

The Hunter Bass

(ver. 1) Click to play this song!
Danzig
 Rating:
4/5 (4 votes)


 The Hunter lessons Tabs too difficult? Try these video lessons and learn fast
 
                Band:Danzig
Album:Danzig 1
Intro
G|--------|
D|--------|
A|-0------|
E|--------|
Riff 1
G|----------------|
D|----------------|X2
A|-0--3-5-0--5-3--|
E|----------------|
Chorus
G|------------------------|
D|------------------------|
A|-5-5-5-888-7-5-5-5-8----|
E|---------------------8--|
Riff 1
G|----------------|
D|----------------|x1
A|-0--3-5-0--5-3--|
E|----------------|
Bridge
G|--------------|
D|--------------|
A|-7--5--3------|
E|----------3^--|
End
G|----------|
D|----------|
A|-7--------|
E|----------|

It's a really easy song you just keep on repeating
it.But you don't repeat the end but at the end of 
the song you hit seven and let it ring.
            
Submit corrections



        The Hunter lessons Hard to play? Try these video lessons and learn fast The Hunter lessons
        
↑ Back to top | Tablatures and chords for acoustic guitar and electric guitar, ukulele, drums are parodies/interpretations of the original songs. You may use it for private study, scholarship, research or language learning purposes only