» » »

Danger Radio - Your Kind Speak To Me Tabs

Artists:  A B C D E F G H I J K L M N O P Q R S T U V W X Y Z # 

Your Kind Speak To Me Tabs

(ver. 2) Click to play this song!
Danger Radio
 Rating:
4.3/5 (6 votes)


 Your Kind Speak To Me lessons Tabs too difficult? Try these video lessons and learn fast
 
                "-------------------------------------------------------------------------------
                Your Kind (Speak To Me) – Danger Radio
-------------------------------------------------------------------------------

Tuning: Standard, low to high – EADGBe

Intro

e|---------------------------------------------------------------------------|
B|---------------------------------------------------------------------------|
G|-------1-0-----------------------------------------------------------------|
D|---3---------3----3-3------------------------------------------------------|
A|---------------3--4-4-----3------3-----------------------------------------|
E|-1--1-----------------3-4---3--3---3--33-2-1-------------------------------|

e|---------------------------------------------------------------------------|
B|---------------------------------------------------------------------------|
G|-------1-0-----------------------------------------------------------------|
D|---3--------3----3-3-------------------------------------------------------|
A|--------------3--4-4-----3-------------------------------------------------|
E|-1--1----------------3-4--3--3---------------------------------------------|

Verse1

e|---------------------------------------------------------------------------|
B|---------------------------------------------------------------------------|
G|------------------------66-------------------------------------------------| x4
D|--5-5-4-3-x-x-3-x-x-x-x-66-x-x-x-5/6-x-x-x-6-x-x-x-x-5-x-x-5---------------|
A|--5-5-4-3-x-x-3-x-x-x-x-44-x-x-x-5/6-x-x-x-6-x-x-x-x-5-x-x-5---------------|
E|--3-3-2-1-x-x-1-x-x-x-x----x-x-x-3/4-x-x-x-4-x-x-x-x-3-x-x-3---------------|

Erm I’m still working on this I know the chords for the verse are played for every verse 
trying to figure out the chorus atm but the verse seems to sound like it’s in the 
but that can’t be right..

| /  slide up
| \  slide down
| h  hammer-on
| p  pull-off
| ~  vibrato
| +  harmonic
| x  Mute note
"            
Submit corrections



        Your Kind Speak To Me lessons Hard to play? Try these video lessons and learn fast Your Kind Speak To Me lessons
        
↑ Back to top | Tablatures and chords for acoustic guitar and electric guitar, ukulele, drums are parodies/interpretations of the original songs. You may use it for private study, scholarship, research or language learning purposes only