» » »

Dance Gavin Dance - Uneasy Hearts Weigh The Most Bass

Artists:  A B C D E F G H I J K L M N O P Q R S T U V W X Y Z # 

Uneasy Hearts Weigh The Most Bass

(ver. 2) Click to play this song!
Dance Gavin Dance
 Rating:
4/5 (4 votes)


 Uneasy Hearts Weigh The Most lessons Tabs too difficult? Try these video lessons and learn fast
 
                Intro/Verse X2 (Enter with drums) (0:13-0:33):(Alternate Ending)
G|-----------------------|     G|-----------------------| 
D|-----------------------|     A|-----------------------| 
A|---9-9----------4-4----|     D|-----------------------|  
E|-7-----7-7----2-----2-2|     E|-2/4-4h5-7-------------|  


Chorus X2 (0:34-0:56) 
G|---------------------------------------------------------------------|
D|---------------------------------------------------------------------|
A|---------------------------------------------------------------------|
E|-5/7777-5-7-9-5-2-5/7777-5-7-9-5-2-0h2222-0h2-7-5~-0h2222-0-2-8-7~---|


Back To The Intro/Verse X4("Solo") (0:57-1:42)


Chorus X2  (1:43-2:03)


Bridge X2 ("Holy sh*t She Smells Like Heaven...") (2:04-2:27)
G|-------------------------------------------------------------------------|
D|-----------------------------------7-77-7-7-7-7-777----------------------|
A|------------------5-55-5-5-5-5-555------------------9-99-9-9-9-9-999-----|
E|-7-77-7-7-7-7-777--------------------------------------------------------|
(The Bridge Is Pretty Much Improvisation, Throw In Some Tasteful Fills)

A Breakdown (Of Sorts)(2:39-2:50)
G|----------------------------------------------|
D|----------------------------------------------|
A|-------9/--------9/--------9/---------------9/|
E|-222-----222-222--222-222---222---222---------|

Bridge X2 (3:03-3:35)
G|-------------------------------------------------------------------------|
D|-----------------------------------7-77-7-7-7-7-777----------------------|
A|------------------5-55-5-5-5-5-555------------------9-99-9-9-9-9-999-----|
E|-7-77-7-7-7-7-777--------------------------------------------------------|
(Insert More Tasteful Fills!)
Ending  (3:35-3:39)
G|-----------------------|
D|-----------------------| 
A|----99/----------------| 
E|-----------------------|  

There ya go, your all done!
Pretty fun, huh? 
^.^

| b  bend
| r  release
| /  slide up
| \  slide down
| h  hammer-on
| p  pull-off
| ~  vibrato
| +  harmonic
| x  Mute note
            
Submit corrections



        Uneasy Hearts Weigh The Most lessons Hard to play? Try these video lessons and learn fast Uneasy Hearts Weigh The Most lessons
        
↑ Back to top | Tablatures and chords for acoustic guitar and electric guitar, ukulele, drums are parodies/interpretations of the original songs. You may use it for private study, scholarship, research or language learning purposes only