» » »

Dance Gavin Dance - Uneasy Hearts Weigh The Most Tabs

Artists:  A B C D E F G H I J K L M N O P Q R S T U V W X Y Z # 

Uneasy Hearts Weigh The Most Tabs

(ver. 3) Click to play this song!
Dance Gavin Dance
 Rating:
4/5 (4 votes)


 Uneasy Hearts Weigh The Most lessons Tabs too difficult? Try these video lessons and learn fast
 
                



I do not know how it is 
played by Dance Gavin Dance, it is just the way we worked it by ear for the acoustic.


Tuning: Drop D (DADGBE)


Intro/Verse

      The intro and verse in the cover both just repeat variations of B and 
      F# chords. The strumming isn't too difficult to figure out.

           B              F#

     |-----9------|-------4-------|
     |-----10-----|-------5-------|
     |-----11-----|-------6-------|
     |-----12-----|-------7-------|
     |-----9------|-------4-------|
     |-----9------|-------4-------|


Chorus:

      The chorus is not as simple but still not too difficult.


     |-------------------------------------|
     |-------------------------------------|
     |-------------------------------------|  x2
     |----7h9-9-9-9---7--9--11--9--7-------|   
     |----7h9-9-9-9---7--9--11--9--7-------|
     |----7h9-9-9-9---7--9--11--9--7-------|

     |-------------------------------------|
     |-------------------------------------|
     |-------------------------------------|  x2
     |----2h4-4-4-4---2--4--9--7-----------|   
     |----2h4-4-4-4---2--4--9--7-----------|
     |----2h4-4-4-4---2--4--9--7-----------|


Post Chorus/Bridge:

      The chords for these sections are exactly the same as the intro and      
      verses, just with a slightly different strumming pattern.  Just listen 
      and figure it out, it's really simple.

      ENJOY!
            
Submit corrections



        Uneasy Hearts Weigh The Most lessons Hard to play? Try these video lessons and learn fast Uneasy Hearts Weigh The Most lessons
        
↑ Back to top | Tablatures and chords for acoustic guitar and electric guitar, ukulele, drums are parodies/interpretations of the original songs. You may use it for private study, scholarship, research or language learning purposes only