» » »

Dance Gavin Dance - Backwards Pumpkin Song Bass

Artists:  A B C D E F G H I J K L M N O P Q R S T U V W X Y Z # 

Backwards Pumpkin Song Bass

(ver. 1) Click to play this song!
Dance Gavin Dance
 Rating:
4/5 (4 votes)


 Backwards Pumpkin Song lessons Tabs too difficult? Try these video lessons and learn fast
 
                Tuning: DADG (you could do it in Standard EADG, just go -2 on the low D)

This song is pretty easy, the fast parts are kinda hard if you use your fingers to 
so I just use a pick.

INTRO

G|----------------------------------------------------------|
D|----------------------------------------------------------|  x2
A|-44444444-44-44--6~---6-----------------------------------|
D|------------------------6-6-6--2~--(2)-(2)--(2~)--2/4-4-4-|

On the third one he does something like this

G|-------------------------------------------------------|
D|-------6-----------------------------------------------|
A|-2h44/7-44-44--6-6-6-----------------------------------|
D|---------------------6-6-6--2~--(2)-(2)--(2~)--2/4-4-4-|

G|---------------------------------------------------------|
D|---------------------------------------------------------|
A|-44444444-44-44--6-6-6-----------------------------------|
D|-----------------------6-6-6--2~--(2)-(2)--(2~)--2/4-4-4-|


"And now, the fog is rolling in..."

G|----------------------------------------------|
D|----------------------------------------------| x2
A|-0-0-0-0-0-0-0-0------------------------------|
D|-----------------6-6--6-6-6-6--2~-----777-777-|

G|--------------|
D|--------------|
A|--------------|
D|-7~--------6~-|

G|----------------|
D|----------------|
A|----------------|
D|-6~--4~--1~--2~-|

G|----------------|
D|----------------|
A|----------------|
D|-6~--4~--1~-----|

G|------------------------------------------------|
D|------------------------------------------------|  x3
A|---------------22222222-2-2-2--4-4-4-4--4-4-4-4-|
D|-666-666-6-6-6----------------------------------|

4th time

G|------------------------------------------------|
D|------------------------------------------------|
A|---------------22222222-2-2-2--4-4-4-4~---------|
D|-666-666-6-6-6----------------------------------|


CHORUS

G|---------------------------------------------------|
D|---------------------------------------------------|
A|-444444-4-4--4444444-4-4--2222222-2-2--2222222-2-2-|
D|---------------------------------------------------|

G|---------------------------------------------------|
D|---------------------------------------------------|
A|---------------------------------------------------|
D|-6666666-6-6--6666666-6-6--777777-7-7--7-7-7-7-7-7-| Both x2


After "One false hope..."

G|-------------------------------------|
D|-------------------------------------|
A|-/4-4-4-4-4-4-4-4--------------------|
D|------------------6--6-6-6-6-6-/7x16-|

G|-------------------------------------------|
D|-------------------------------------------| x3
A|-/4-4-4-4-4-4-4-4--------------------------|
D|------------------6-6-6-6-6-6-6-6-7x16-----|

G|-----------------------------------------|
D|-----------------------------------------| x4
A|-/44444444-------------------------------|
D|------------66666666--77777777--77777777-|

G|-----|
D|-----|
A|-/4~-|
D|-----|


CHORUS

G|---------------------------------------------------|
D|---------------------------------------------------|
A|-444444-4-4--4444444-4-4--2222222-2-2--2222222-2-2-|
D|---------------------------------------------------|

G|---------------------------------------------------|
D|---------------------------------------------------|
A|---------------------------------------------------|
D|-6666666-6-6--6666666-6-6--777777-7-7--7-7-7-7-7-7-| Both x2


BREAKDOWN

G|------------------------------------------------|
D|-------------------------6-6--6-6-6--6-6--4-4-4-| x2
A|-6-6--6-6-6--6-6--7-7-7-------------------------|
D|------------------------------------------------|

Then it goes to this, I think, because the bass goes away but you can still hear it

G|--------------------------|
D|--------------------------| x2
A|-/4444444-4~--/4444444-0~-|
D|--------------------------|

G|------------------------------|
D|------------------------------|
A|-4444444-44-44-44-44-44-44----|
D|---------------------------2~-|
            
Submit corrections



        Backwards Pumpkin Song lessons Hard to play? Try these video lessons and learn fast Backwards Pumpkin Song lessons
        
↑ Back to top | Tablatures and chords for acoustic guitar and electric guitar, ukulele, drums are parodies/interpretations of the original songs. You may use it for private study, scholarship, research or language learning purposes only