» » »

Dance Gavin Dance - Surprise Im From Cuba Everyone Has One Brain Bass

Artists:  A B C D E F G H I J K L M N O P Q R S T U V W X Y Z # 

Surprise Im From Cuba Everyone Has One Brain Bass

(ver. 1) Click to play this song!
Dance Gavin Dance
 Rating:
4/5 (4 votes)


 Surprise Im From Cuba Everyone Has One Brain lessons Tabs too difficult? Try these video lessons and learn fast
 
                Band:Dance Gavin Dance
Album:Downtown Battle Mountain


Incase of any mistakes, contact me at- 


"THIS IS NOT THE WHOLE SONG"

This is just the part that begins


(1:30)
G|--------------------------------|
D|--------------------------------|
A|-3~------3-3-3~------3-3--3-3-3-|
D|--------------------------------|



(1:36)
G|--------------------------------|
D|--------------------------------|
A|-3~------3-3-3~------3-3--3-3-3-|
D|--------------------------------|



(1:41)
G|---------------------------------|
D|---------------------------------|
A|-3~------3-3-3~------3-3-3-3-3-3-|
D|---------------------------------|



(1:47)
G|---------------------------------|
D|---------------------------------|
A|-3~------3-3-3~------33333-------|
D|---------------------------------|
            
Submit corrections



        Surprise Im From Cuba Everyone Has One Brain lessons Hard to play? Try these video lessons and learn fast Surprise Im From Cuba Everyone Has One Brain lessons
        
↑ Back to top | Tablatures and chords for acoustic guitar and electric guitar, ukulele, drums are parodies/interpretations of the original songs. You may use it for private study, scholarship, research or language learning purposes only