» » »

Dance Gavin Dance - Strawberry Andre Bass

Artists:  A B C D E F G H I J K L M N O P Q R S T U V W X Y Z # 

Strawberry Andre Bass

(ver. 1) Click to play this song!
Dance Gavin Dance
 Rating:
4/5 (4 votes)


 Strawberry Andre lessons Tabs too difficult? Try these video lessons and learn fast
 
                Strawberry André            Key: ^ = Hammer on/Pull off
Dance Gavin Dance                / = Slide  
Downtown Battle Mountain

[note: Not in fingering/picking pattern, I'm sure you can figure them out by 
yourself. The spaces are there so it won't get confusing]

Section A
G|----------------------------------------------------|
D|-------------------------------------10-0-10-0-10^0-|
A|-------5-7-8-------5-5^3-------5-7-8----------------|
D|-0-5-7-------0-5-7-------0-5-7----------------------|
                                                         X2
G|-----------------------------------------------------|
D|-------------------------------------10-0-10-0-10/12-|
A|-------5-7-8-------5-5^3-------5-7-8-----------------|
D|-0-5-7-------0-5-7-------0-5-7-----------------------|

Section B
G|---------------------------------|
D|---------------------------------|
A|-5-5-5-5-5-5-5-5/3-3-3-3-3-3-3-3-| X3
D|---------------------------------|

G|-------------------------------------|
D|-------------------------------------|
A|-5-5-5-5-5-5-5-5-X-X-4-4-X-X-4-4-4-4-|
D|-------------------------------------|

Section C
G|---------------------------------|
D|---------------------------------|
A|-5-5-5-5-5-5-5-5/3-3-3-3-3-3-3-3-| X3
D|---------------------------------|

G|-----------------------------------------|
D|-----------------------------------------|
A|-X-X-4-4-X-X-4-4-X-X-4-4-X-X-4-4-4-4-4-4-|
D|-----------------------------------------|

G|---------------------------------|
D|---------------------------------|
A|-5-5-5-5-5-5-5-5/3-3-3-3-3-3-3-3-| X8
D|---------------------------------|

G|-------|
D|-------|
A|-5-3-1^|
D|-------|

Section D
G|------------------|
D|------------------|
A|-5-5-5-5--5-3-3-3-| X3
D|------------------|

G|------------------|
D|------------------|
A|-3-3-3-3--3-1-1-1-|
D|------------------|

G|-----------------|     G|-------------|
D|-----------------|     D|-------------|
A|-5-5-5-5-5-3-3-3-| X3  A|-3-3-3-3-3-1-|
D|-----------------|     D|-------------|

Section E
[REST]

G|----------|
D|----------|
A|----------| X8
D|-0-0--0-0-|

Section F
G|----------------------------------------------------|
D|-------------------------------------10-0-10-0-10^0-|
A|-------5-7-8-------5-5^3-------5-7-8----------------|
D|-0-5-7-------0-5-7-------0-5-7----------------------|
                                                         X2
G|-----------------------------------------------------|
D|-------------------------------------10-0-10-0-10/12-|
A|-------5-7-8-------5-5^3-------5-7-8-----------------|
D|-0-5-7-------0-5-7-------0-5-7-----------------------|

G|-----------------------|
D|-----------------------|
A|-5--5-5--5--5-5-3--3-3-|
D|-----------------------|

G|--------------|
D|--------------|
A|--------------|
D|-0-0-0--0-0-0-|

Section G
G|------------------|
D|------------------|
A|-5-5-5-5--5-3-3-3-| X3
D|------------------|

G|------------------|
D|------------------|
A|-3-3-3-3--3-1-1-1-|
D|------------------|

G|-----------------------|
D|-----------------------|
A|-5--5-5--5--5-5-3--3-3-|
D|-----------------------|

G|--------------|
D|--------------|
A|--------------|
D|-0-0-0--0-0-0-|

Section H
G|------------------|
D|------------------|
A|-5-5-5-5--5-3-3-3-| X3
D|------------------|

G|------------------|
D|------------------|
A|-3-3-3-3--3-1-1-1-|
D|------------------|

Section I
[REST]

G|---------------------|
D|---------------------|
A|-X-X-4-4-X-X-4-4-4-4-|
D|---------------------|

[REST]

G|---------|
D|---------|
A|-X-X-4-4-|
D|---------|
            
Submit corrections



        Strawberry Andre lessons Hard to play? Try these video lessons and learn fast Strawberry Andre lessons
        
↑ Back to top | Tablatures and chords for acoustic guitar and electric guitar, ukulele, drums are parodies/interpretations of the original songs. You may use it for private study, scholarship, research or language learning purposes only