» » »

Dance Gavin Dance - Stawberry Swisher Bass

Artists:  A B C D E F G H I J K L M N O P Q R S T U V W X Y Z # 

Stawberry Swisher Bass

(ver. 1) Click to play this song!
Dance Gavin Dance
 Rating:
4/5 (4 votes)


 Stawberry Swisher lessons Tabs too difficult? Try these video lessons and learn fast
 
                

~  Leave ringing
/  Slide
h  Hammer on
p  Power off



G -------------------------------------------------------||
D -------------------------------------------------------||
A 9--9--9-9p11----------------------------8-8--8-8p6p8---||
E --------------9-9--9--9--9-9-6-6-6-6p4-----------------||   x2


What a relief~

G ------------------------------------||
D ------------------------------------||
A --9-9--8-8--------------------------||
E ------------11~---------------------||  x2


G ----------------------------------------------------------------------------------------|
D ---------9h11--11---------------------------------------9h11--11------------------------|
A -9-9-9-9-----------9/6-6-6-6-4~-4-4--8p6---8----9-9-9-9----------9/6-6-6-6-4~-/8h6------|
E -----------------------------------------9----------------------------------------9-6---|


G -----------------------------------------------------------------8----------------------||
D ---------9h11--11---------------------------------------9h11--11------------------------||
A -9-9-9-9-----------9/6-6-6-6-4~-4-4--8p6---8----9-9-9-9------------9/6-6-6-6-4~-/8h6----||
E -----------------------------------------9------------------------------------------9-6-||



*Brief pause*



You'll always be waiting~

G ---------------------------------------------------------------||
D -----6-8-----6-8---11h8----------------------------------------||
A -4-6-----4-6------------11------6-8------6-8~-/16--------------||
E ----------------------------7-9-----7-9------------------------||


So this is why~

G -------------------------------   ---------13-10-----------/15-10---------13-10-----------/15-|
D --------11-8--------------11-8-   -11-11-11-----11-11-11-11-------11-11-11-----11-11-11-11----|
A -8-9-10-------8-8h10h8h10------   ------------------------------------------------------------|
E -------------------------------x2 ------------------------------------------------------------|x2

\-------------------------------repeat this section twice----------------------------------/


What a relief~

G -------------------------||
D -------------------------||
A --9-9--8-8---------------||
E ------------11~----------|| 


G ----------------------------------------------------------------------------------------|
D ---------9h11--11---------------------------------------9h11--11------------------------|
A -9-9-9-9-----------9/6-6-6-6-4~-4-4--8p6---8----9-9-9-9----------9/6-6-6-6-4~-/8h6------|
E -----------------------------------------9----------------------------------------9-6---|


G -----------------------------------------------------------------8------------------------||
D ---------9h11--11---------------------------------------9h11--11--------------------------||
A -9-9-9-9-----------9/6-6-6-6-4~-4-4--8p6---8----9-9-9-9------------9/6-6-6-6-4~-/8h6--/18-||
E -----------------------------------------9------------------------------------------------||


Could you stay~

G -------------------------------------------||
D -------------------11----------------------||
A -9-9-9-9-9-9-8h9h10----------------8-8-7h8-||
E -----------------------9-9-9-9-9-9---------||  x (repeat till end)
            
Submit corrections



        Stawberry Swisher lessons Hard to play? Try these video lessons and learn fast Stawberry Swisher lessons
        
↑ Back to top | Tablatures and chords for acoustic guitar and electric guitar, ukulele, drums are parodies/interpretations of the original songs. You may use it for private study, scholarship, research or language learning purposes only