» » »

Dance Gavin Dance - Me And Zoloft Get Along Just Fine Bass

Artists:  A B C D E F G H I J K L M N O P Q R S T U V W X Y Z # 

Me And Zoloft Get Along Just Fine Bass

(ver. 2) Click to play this song!
Dance Gavin Dance
 Rating:
4/5 (4 votes)


 Me And Zoloft Get Along Just Fine lessons Tabs too difficult? Try these video lessons and learn fast
 
                "Me And Zoloft Get Along Just Fine" -Dance Gavin Dance
Bassist: Eric Lodge


So yeah, on a side note, Eric(Bassist) really locks in with Matt(Drummer)
on this one, the best advice I can give is to follow the double bass ^.^

Intro (0:00) X4 "Ask Me I'm Fine Or I Will Be..."
G|----------------------------------------------------------------|
D|----------------------------------------------------------------|
A|----------------------------------------------------------------|
E|-0000-000-3333-333-8888-888-888--(Last time, slide down from 8)-|


(0:18) "I've Got A Bulletproof Vest On And A Wire Tapped To Your Brain..."
G|-----------------------------------------|
D|-----------------------------------------|
A|----------55-55-------------55-55~-------|
E|-00-00-------------00-00-----------------|

Pre-Chorus (0:30-40)(Just Guitar)


Chorus X2 (Remember, Match The Double Bass) (0:41-1:03) (Second Time, Don't Do The Little Fill)
G|------------------------------------------------------------------|
D|--------------------------7h9p75----------------------------------|
A|------------------------------------------------------------------|
E|--8888-8888-88--5555-5555---------0000-0000-00-0000-0000-00-------|

Post-Chorus/Break (1:04-1:08)
G|-----------------|
D|-----------------|
A|-----------------|
E|------8~~~~/-----|

"Rate Me And Judge Me On A Graph..." (1:09-1:21)(I Do The Slide For Fun)
G|--/---------X2------------\-----------------------------------------------|
D|-/-------------------------\----------------------------------------------|
A|--3-3-3--3-3-3--5-5h7-5-5h7------3(Pedal)/15*-----------------------------|
E|--------------------------------------------------------------------------|

"I Guess I'm Not Making Myself..."(X3 1/2) (1:22-1:43)
G|--------------------------------------------------------------------------|
D|--------------------------------------------------------------------------|
A|-3-33-333-5h77-5h7--3-33-333-5h77-5h7-----(End on the 3-33-33 the 4th time|
E|--------------------------------------------------------------------------|

Pre-Chorus
"I've Got To Blame All These People..." (1:43-1:52) (Follow.The.Drums)
G|-------------------------------------------------------------------------|
D|-------------------------------------------------------------------------|
A|--5555555555555555-99--7777777777777777-1010--2222222222222222-55--------|
E|-------------------------------------------------------------------------|

Chorus X2 (1:52-2:14) (Second Time, Don't Do The Little Fill)
G|----------------------------------------------------------------------|
D|--------------------------7h9p75--------------------------------------|
A|----------------------------------------------------------------------|
E|--8888-8888-88--5555-5555---------0000-0000-00-0000-0000-00~~~~-------|

Interlude(2:15-2:28)(Guitar/Drums)

Outro (2:29-3:06)
G|-------------------8~------------------6-8~-------------------------------|
D|------------------8-------------------------------------------------------|
A|--7~---6~---5~---6----7~---6~---5~---6~------7~-6~-5~---4~-3~---5-6~~~~~--|
E|--------------------------------------------------------------------------|
            
Submit corrections



        Me And Zoloft Get Along Just Fine lessons Hard to play? Try these video lessons and learn fast Me And Zoloft Get Along Just Fine lessons
        
↑ Back to top | Tablatures and chords for acoustic guitar and electric guitar, ukulele, drums are parodies/interpretations of the original songs. You may use it for private study, scholarship, research or language learning purposes only