» » »

Daft Punk - Technologic Bass

Artists:  A B C D E F G H I J K L M N O P Q R S T U V W X Y Z # 

Technologic Bass

(ver. 1) Click to play this song!
Daft Punk
 Rating:
4/5 (4 votes)


 Technologic lessons Tabs too difficult? Try these video lessons and learn fast
 
                -------------------------------------------------------------------------------
			     TECHNOLOGIC - Daft Punk
-------------------------------------------------------------------------------


Tuning: Standard: EADG

Verse
G|----------------------|
D|----------------------|
A|-7-7---9-9------------|
E|-----------8-8---10-10|

Chorus part 1
G|--------------7--|
D|-----7---10------|
A|-7---------------|
E|-----------------|

Chorus part 2
G|-9------------7--| \
D|-----7---10------|  \ Repeat
A|-----------------|  / 3 times
E|-----------------| /

===============================================================================
            
Submit corrections



        Technologic lessons Hard to play? Try these video lessons and learn fast Technologic lessons
        
↑ Back to top | Tablatures and chords for acoustic guitar and electric guitar, ukulele, drums are parodies/interpretations of the original songs. You may use it for private study, scholarship, research or language learning purposes only