Home » C » Crossfade »

Crossfade - Colors Bass

Artists:  A B C D E F G H I J K L M N O P Q R S T U V W X Y Z # 

Colors Bass

(ver. 1) Click to play this song!
Crossfade
Crossfade - Colors

bass tab


5-stringed bass
G D A E B

   CORO 1
G-|----------------------------|-----------|--------------------------|
D-|----------------------------|-----------|--------------------------|
A-|----------------------------|-----------|--------------------------|
E-|---------------8---8--------|-----------|-------------8---8---77---|
B-|-3---3---366-----------88---|-----------|-3---3---366--------------|
                                 variacion                                     

   CORO 2   
G-|-------------------------------|
D-|-------------------------------|
A-|-------------------------------|
E-|-------------888---777-6---6---|
B-|-3---3---3---------------------|
                                                                              

   VERSO
G-|-----------------|-----|
D-|-----------------|-----|
A-|-5---------------|-----|
E-|-----6-----------|-----|
B-|---------6---5---|-1-2-|
                                                                              

   BREAK
G-|-----------------------------|-------------|
D-|-----------------------------|-------------|
A-|-----------------------------|-------------|
E-|---------66-55---------66-55-|-------------|
B-|-33-33-3-------66-66-6-------|-3---3---3---|
                                                                              

G-|----------------|------------------|--------------------------|------|
D-|----------------|------------------|--------------------------|------|
A-|----------------|------------------|--------------------------|------|
E-|-10-8-----------|------------------|-10-8---888-88------------|------|
B-|---------1------|-3---3-33-3-333---|---------------1---1---11-|------|
                         *A*                                     + *A*        

   FIN
G-|--------------|
D-|--------------|
A-|--------------|
E-|--------------|
B-|-33----333----|
                                                                              
Le mando pues harta congratulacion a La Paola dela Quintana del QB 2004 es que me
acordado que al Camba pues le gustaba harto oooye y cuando iba al curso no queria
entrar y se escapaba no mas y ella no decia nada porque no se daba cuenta creo. utha

doky2007
            
Submit corrections

↑ Back to top | Tablatures and chords for acoustic guitar and electric guitar, ukulele, drums are parodies/interpretations of the original songs. You may use it for private study, scholarship, research or language learning purposes only