» » »

Crosby Stills And Nash - Lay Me Down Tabs

Artists:  A B C D E F G H I J K L M N O P Q R S T U V W X Y Z # 

Lay Me Down Tabs

(ver. 1) Click to play this song!
Crosby Stills And Nash
 Rating:
4.3/5 (6 votes)

 Lay Me Down lessons Tabs too difficult? Try these video lessons and learn fast
 
                
Copyright (c)  (RECORD LABEL) (YEAR)
Version 1.0 - 01/21/2005



.  - palm mute           /  - slide up to
\  - slide down to       ~  - vibrato
h  - hammer on           b  - Bend
p  - pull off            Suffixes for bend
t  - tap                 f  - full bend    h - half bend
ph - pinched harmonic    q  - quarter bend t - tap bend
*  - see comment         ^  - Hold bend    r release bend
x  - Stuccatto           ~  - vibrato bend
,  - slight palm mute    () - ghost note, sustained note
"  - tremolo note        <> - Trill

Tunning Eb Ab Db Gb Bb Eb

Finger Picking 

InTRO (&chorus)

|-0-------0---0-------0----------|
|------0-----------0-------------|
|--------------------------------| 2x
|----2-----------2---------------|
|--------------------------------|
|-0------------0-----------------|

|-7-------7---5-------5---5-------5----3---3--2---2--0------0---------|
|------5-----------5-----------3----------0--------------3------------|
|----7-----------6-----------5-------------------2-----2--------------|
|-------------------------2-----2------2------0-----------------------|
|----------------------------------------------------0----------------|
|-7------7----7------7----------------(*)-----------------------------|
********************************************here you can play
--0------0----0........instead -0------0--..(it's more simple and sounds the same)


|--------0----------3----------3--------------|
|-3---3-----3----3----------3-----------------|
|---0----------0----------0-------------------| 
|---------------------------------------------| 2x
|-----------3----------3----------------------|	
|-3-------------------------------------------|
 (second time don't play     the last chord but instead the opening riff)

(*) play 0 instead of 2 the 2nd time

Verse

|-0-------0---0-------0----------|
|------0-----------0-------------|
|--------------------------------| 
|----2-----------2---------------|
|-------------2------------------|
|-0------------------------------|




|----------0----------0------------0----------0------------------------|
|-3----3------3----3-------0----0-----0----0------3------3--2--3-2-----|
|-----------------------------0----------0-----------2-----------------|
|----4-----------4----------------------------------2---------2----2---|
|-2-----2-----2-----2-----------------------------0---0-----0----------|
|--------------------------3-----3----3--------3-----------------------|




|--------0-----------0----------|
|-0----0-----0-----0------------|
|-------------------------------| 
|----2----------2---------------|
|-------------------------------|
|-0----------0------------------|




|-----------------------------0---------0-------------------------|
|----------------1----------3---------3------3------3--2----------|
|----0-0---------------2---------2--------------2----------4--2---|
|--------------4---4------0---------0----------2---------2--------|
|-2---2-----2--------------------------------0---0-----0----------|
|-----------------------------------------------------------------|

There is an after-chorus at 1.38 but i'm too lazy too tab it out too.. sry
The patterns can change a little bit at verse+chorus 2 but's it's mainly the same chords
the string sequence changes, but that's not very significant..

END
            
Submit corrections


        Lay Me Down lessons Hard to play? Try these video lessons and learn fast Lay Me Down lessons
        
↑ Back to top | Tablatures and chords for acoustic guitar and electric guitar, ukulele, drums are parodies/interpretations of the original songs. You may use it for private study, scholarship, research or language learning purposes only