» » »

Cradle Of Filth - Fire Still Burns Tabs

Artists:  A B C D E F G H I J K L M N O P Q R S T U V W X Y Z # 

Fire Still Burns Tabs

(ver. 1) Click to play this song!
Cradle Of Filth
 Rating:
4/5 (4 votes)


 Fire Still Burns lessons Tabs too difficult? Try these video lessons and learn fast
 
                cradle of filth-the fire still burns

/-hammer on

 im still working on the solo,this is a relatively easy yet very effective piece when played correctly,this is also 100% correct 
as im friends with adrian the bands guitarist.Enjoy!

                            INTRO
e-----------------------------------------------------------------------]
b-----------------------------------------------------------------------]
g------------------  X-3  ---------------------------------------------]
d-----------------------------------------------------------------------]
a-----------------------------------------------------------------------]
e---9/10-10--13--10-10--9/10-10--13--10-10-----6---8--13-12-13]

e----------------
b----------------          on the 3rd add this straight after the 6 instead of the 8
g-----------------
d---------------------
a------------------
e--13--12-13-12-13


E----------------------------------------------------------------------
B----------------------------------------------------------------------
G---------------------------------------------------------------------
D------------------------------------------------------------------------
A------------------------------------------------------------------------
E---9/10-10-13--10-10--9/10-10--13-10-10----5---8----

E------------------------------------------------------------------------------------
B------------------------------------------------------------------------------------
G------------------------------------------------------------------------------------
D------------------------------------------------------------------------------------
A------------------------------------------------------------------------------------
E--13-12-13-10-13-12-13-12-13-10-13-12----8-13-12-13-12-13---------------

E----------------------------------------------------------------------------
B----------------------------------------------------------------------------
G---------------------------------------------------------------------------
D---------------------------------------------------------------------------
A--------------------------------------------------------------------------
E--13-12-13-10-13-12-13-12-13-10-13-12----6---4---2--1


E----------------------------------------------------------------------------
B----------------------------------------------------------------------------
G---------------------------------------------------------------------------
D---------------------------------------------------------------------------
A---12--11-12--9--12-11-12-11-12--9--12--11---------------------------------
E---13--12-13-10-13-12-13-12-13-10-13--12----0-0-0-2--0-0-0--2-0-2

E----------------------------------------------------------------------------
B----------------------------------------------------------------------------
G---------------------------------------------------------------------------
D---------------------------------------------------------------------------
A---12--11-12--9--12-11-12-11-12--9--12--11---5--3--1--0--
E---13--12-13-10-13-12-13-12-13-10-13--12---6--4--2--1

Well thats it,its all there but ill leave it to you to work out what goes where.please e-mail me 
after reading this to tell me what you thought of the tab
            
Submit corrections



        Fire Still Burns lessons Hard to play? Try these video lessons and learn fast Fire Still Burns lessons
        
↑ Back to top | Tablatures and chords for acoustic guitar and electric guitar, ukulele, drums are parodies/interpretations of the original songs. You may use it for private study, scholarship, research or language learning purposes only