» » »

Cradle Of Filth - Byronic Man Tabs

Artists:  A B C D E F G H I J K L M N O P Q R S T U V W X Y Z # 

Byronic Man Tabs

(ver. 2) Click to play this song!
Cradle Of Filth
 Rating:
4/5 (4 votes)


 Byronic Man lessons Tabs too difficult? Try these video lessons and learn fast
 
                		     Cradle of Filth - Byronic Man

Tuning:CGCFAd

Pt1
|--------------------------------------------|
|--------------------------------------------|
|--------------------------------------------|
|--------------------------------------------|   3 times
|-9----12----11----9----11----15----12--11/9-|
|-9----12----11----9----11----15----12--11/9-|

|---------------------------------------|
|---------------------------------------|
|---------------------------------------|
|---------------------------------------|   
|-9----12----11----9----11----12--15-14-|
|-9----12----11----9----11----12--15-14-|

Pt2
|---------------------------------------------|
|---------------------------------------------|
|-4--7--6/4--4--7--6/4--6--10--7/6--6---------|
|-4--7--6/4--4--7--6/4--6--10--7/6--6-3--5-6--|     4 times
|-2--5--4/2--2--5--4/2--4--8---5/4--4-3--5-6--|
|-------------------------------------3--5-6--|

pt3 gtr 1
|-------------------------------------------------|
|-------------------------------------------------|
|-4--7-6-4-6-4--7-6-4-6~~~~-10~~~~-13~~~~-16~~~~--|  
|-------------------------------------------------|    2 times
|-------------------------------------------------|
|-------------------------------------------------|
|pt3 gtr 2
|-------------------------------------------------|
|---10-9-7-9----10-9-7-9--------------------------|
|7-----------7------------------------------------|
|------------------------/11----------------------|    2 time
|----------------------------/11--/8--/5----------|
|-------------------------------------------------|

pt4
|----------------------------------|
|----------------------------------|
|----------------------------------|
|-7-3-0-7-3-0-7-3-0-3-6-0-3-6-3-6--|     2 times
|----------------------------------|
|----------------------------------|

pt5
|---------------------------------|
|---------------------------------|
|---------------------------------|
|-4-444--5-555--4-444--5-5-7-5----|     2 times
|-4-444--5-555--4-444--5-5-7-5----|
|-4-444--5-555--4-444--5-5-7-5----|

Repeat:
pt 3
pt 4
pt 5
pt 3
---------------------------
pt6
|----------------------------------------------------------------------|
|----------------------------------------------------------------------|
|----------------------------------------------------------------------|
|-444444444444-77777777-666-444--666666666666-1010101010101010-777-666-|
|-222222222222-55555555-444-222--444444444444-8-8-8-8-8-8-8-8--555-444-|
|----------------------------------------------------------------------|

Guitar solo. 
|--------------------------------|---------------------------------|
|--------------------------------|---------------------------------|
|--------------------------------|---------------------------------|
|-4-7644-764-04-0-0-46---4----46-|-4-7644-11974-04-0-0-46--4----46-| 2 times
|----------------------4---44----|------------------------4--44----|
|--------------------------------|---------------------------------|
Solo end.
|-------------|
|-------------|
|-------------|
|-------------|
|-5420--------|
|------5420---|

Outro
|----------|
|----------|
|----------|
|-5-7-5-4--|
|-5-7-5-4--|
|-5-7-5-4--|


| /  slide up
| \  slide down
| ~  vibrato

This sounds ok to me.
I think its pritty close to the song.
This is my first tab so go easy xD lol.

ENJOY!!
            
Submit corrections



        Byronic Man lessons Hard to play? Try these video lessons and learn fast Byronic Man lessons
        
↑ Back to top | Tablatures and chords for acoustic guitar and electric guitar, ukulele, drums are parodies/interpretations of the original songs. You may use it for private study, scholarship, research or language learning purposes only