» » »

Collective Soul - Youth Chords

Artists:  A B C D E F G H I J K L M N O P Q R S T U V W X Y Z # 

Youth Chords

(ver. 2) Click to play this song!
Collective Soul
 Rating:
4/5 (4 votes)


 Youth lessons Tabs too difficult? Try these video lessons and learn fast
 
                -------------------------------------------------------------------------------
                             Youth (Acoustic) - Collective Soul
-------------------------------------------------------------------------------

Tuning: Down 1/2 step (Eb Gb Bb Db Ab Eb)

Chords used:
     G    Em7  Cadd9   Am    C    D/F#
eb|--3-----3-----3-----0-----0-----2------------------------------------------------|
Bb|--3-----3-----3-----1-----1-----3------------------------------------------------|
Gb|--0-----0-----0-----2-----0-----2------------------------------------------------|
Db|--0-----2-----2-----2-----2-----0------------------------------------------------|
Ab|--2-----2-----3-----0-----3-----0------------------------------------------------|
Eb|--3-----0-----------------------2---------------------------------------------|

Verse: (G Em7 Cadd9) x2
And you said 
We would be golden
When we grow old 
And you said 
We'd never be broken
When we grow old

Chorus: (Am C G) x2
But if a river can dry to dust
I guess the angels we grow to trust 
Can fly away 
Like a mountain can lose its peak 
Right now another heart can change its needs
Quietly 

Verse: (G Em7 Cadd9) x2
And you said 
We'd never be parted 
When we grow old 
And you said 
I'll see you in heaven
When we grow old 

Chorus: (Am C G) x2
But if a river can dry to dust 
I guess the angels we learn to trust
Can fly away 
Like a mountain can lose its peak 
Right now another heart can change its needs
Quietly 

Bridge: (G D/F# Am C) x2
I said goodbye come tomorrow 
Goodbye come tomorrow 
Goodbye goodbye
Yeah goodbye come tomorrow 
Goodbye come tomorrow 
Goodbye goodbye

Outro: (G Em7 Cadd9)
You said we would be golden
When we grow old
            
Submit corrections



        Youth lessons Hard to play? Try these video lessons and learn fast Youth lessons
        
↑ Back to top | Tablatures and chords for acoustic guitar and electric guitar, ukulele, drums are parodies/interpretations of the original songs. You may use it for private study, scholarship, research or language learning purposes only