» » »

Collective Soul - Hollywood Bass

Artists:  A B C D E F G H I J K L M N O P Q R S T U V W X Y Z # 

Hollywood Bass

(ver. 1) Click to play this song!
Collective Soul
 Rating:
4/5 (4 votes)


 Hollywood lessons Tabs too difficult? Try these video lessons and learn fast
 
                -----------------------------------------------------------------------------
		                  
                 Hollywood - Collective Soul (BASS)
            
-----------------------------------------------------------------------------

Tuning: Tune down one full step

=============================================================================
                                                       
Bass



     E  E  E  E  E  E  E  E     E  E  E  E  E  E  E  E   
F||--------------------------|--------------------------|
C||--------------------------|--------------------------|
G||--5--5--5--5--5--5--5--5--|--------------------------|
D||--------------------------|--5--5--5--5--3--3--3--3--|


  E  E  E  E  E  E  E  E     E  E  E  E  E  E  E  E   
--------------------------|--------------------------|
--------------------------|--------------------------|
--5--5--5--5--5--5--5--5--|--------------------------|
--------------------------|--5--5--5--5--3--3--3--3--|


  E  E  E  E  E  E  E  E     E  E  E  E  E  E  E  E   
--------------------------|--------------------------|
--------------------------|--------------------------|
--5--5--5--5--5--5--5--5--|--------------------------|
--------------------------|--5--5--5--5--3--3--3--3--|


  E  E  E  E  E  E  E  E     E  E  E  E  E  E  E  E                           
--------------------------|--------------------------|-----|-----|-----|----|
--------------------------|--------------------------|-----|-----|-----|----|
--5--5--5--5--5--5--5--5--|--------------------------|-----|-----|-----|----|
--------------------------|--5--5--5--5--3--3--3--3--|-----|-----|-----|----|


                  H.           Q        E  E  Q    E  E  Q     
-------|-------|---------------------|------------------------|
-------|-------|---------------------|------------------------|
-------|-------|---------------------|------------------------|
-------|-------|---------------8\----|--5--5-------3--3-------|


  E  E  E  E  E  E  E  E     E  E  E  E  E  E  E  E   
--------------------------|--------------------------|
--------------------------|--------------------------|
--5--5--5--5--5--5--5--5--|--------------------------|
--------------------------|--5--5--5--5--3--3--3--3--|


  E  E  E  E  E  E  E  E     E  E  E  E  E  E  E  E   
--------------------------|--------------------------|
--------------------------|--------------------------|
--5--5--5--5--5--5--5--5--|--------------------------|
--------------------------|--5--5--5--5--3--3--3--3--|


  E  E  E  E  E  E  E  E     E  E  E  E  E  E  E  E   
--------------------------|--------------------------|
--------------------------|--------------------------|
--5--5--5--5--5--5--5--5--|--------------------------|
--------------------------|--5--5--5--5--3--3--3--3--|


  E  E  E  E  E  E  E  E     E  E  E  E  E  E  E  E     E  E  H        Q     
--------------------------|--------------------------|----------------------|
--------------------------|--------------------------|----------------------|
--5--5--5--5--5--5--5--5--|--------------------------|--5--5----------------|
--------------------------|--5--5--5--5--3--3--3--3--|----------------------|


  E  E  Q    E  E  Q       E  E  Q    E  E  E  E     E  E  Q    E  E  Q     
------------------------|-------------------------|------------------------|
------------------------|-------------------------|------------------------|
------------------------|--5--5-------------------|------------------------|
--5--5-------3--3-------|----------------0--3--0--|--5--5-------3--3-------|


  E  E  H        Q       E  E  Q    E  E  Q       E  E  Q    E  E  E  E   
----------------------|------------------------|-------------------------|
----------------------|------------------------|-------------------------|
--5--5----------------|------------------------|--5--5-------------------|
----------------------|--5--5-------3--3-------|----------------0--3--0--|


  E  E  Q    E  E  Q       E  E  E  E  E  E  E  E     E  E  E  E  E  E  E  E   
----------------------|--------------------------|--------------------------|
----------------------|--------------------------|--------------------------|
----------------------|--5--5--5--5--5--5--5--5--|--------------------------|
5--5-------3--3-------|--------------------------|--5--5--5--5--3--3--3--3--|


  E  E  E  E  E  E  E  E     E  E  E  E  E  E  E  E   
--------------------------|--------------------------|
--------------------------|--------------------------|
--5--5--5--5--5--5--5--5--|--------------------------|
--------------------------|--5--5--5--5--3--3--3--3--|


  E  E  E  E  E  E  E  E     E  E  E  E  E  E  E  E   
--------------------------|--------------------------|
--------------------------|--------------------------|
--5--5--5--5--5--5--5--5--|--------------------------|
--------------------------|--5--5--5--5--3--3--3--3--|


  E  E  E  E  E  E  E  E      E  E  E  E  E  E  E  E   
--------------------------|---------------------------|
--------------------------|--/7--7--7--7--5--5--5--5--|
--5--5--5--5--5--5--5--5--|---------------------------|
--------------------------|---------------------------|


  E  E  E  E  E  E  E  E     E  E  E  E  E  E  E  E   
--------------------------|--------------------------|
--------------------------|--------------------------|
--5--5--5--5--5--5--5--5--|--------------------------|
--------------------------|--5--5--5--5--3--3--3--3--|


  E  E  E  E  E  E  E  E     E  E  E  E  E  E  E  E   
--------------------------|--------------------------|
--------------------------|--------------------------|
--5--5--5--5--5--5--5--5--|--------------------------|
--------------------------|--5--5--5--5--3--3--3--3--|


  E  E  E  E  E  E  E  E     E  E  E  E  E  E  E  E   
--------------------------|--------------------------|
--------------------------|--------------------------|
--5--5--5--5--5--5--5--5--|--------------------------|
--------------------------|--5--5--5--5--3--3--3--3--|


  E  E  E  E  E  E  E  E      E  E  E  E  E  E  E  E     E  E  E  Q    Q    E   
-------------------------|---------------------------|----------------------|
-------------------------|--/7--7--7--7--5--5--5--5--|----------------------|
-5--5--5--5--5--5--5--5--|---------------------------|--5-----------------4-|
-------------------------|---------------------------|-----0--2--3----5-----|


  E  E  E  Q    Q.        E  E  E  Q    Q    E     E  E  E  E  E  Q.      
-----------------------|------------------------|------------------------|
-----------------------|------------------------|--------------5--4------|
--L--5--4--2-----------|--5------------------4--|--L--5--4--2------------|
----------------5------|-----0--2--3----5-------|------------------------|


  E  E  E  Q    Q    E     E  E  E  Q    Q.        E  E  E  Q    Q    E   
------------------------|-----------------------|------------------------|
------------------------|-----------------------|------------------------|
--5------------------4--|--L--5--4--2-----------|--5------------------4--|
-----0--2--3----5-------|----------------5------|-----0--2--3----5-------|


  E  E  E  E  E  Q.        H        E  E  E  E     E  Q    E  E  E  Q     
------------------------|-----------------7-----|------------------------|
--------------5--4------|--------------7-----7--|--7----------5--5-------|
--L--5--4--2------------|-----------------------|------------------------|
------------------------|-----------------------|------------------------|


  E  H        E  E  E     E  Q    E  E  E  Q       E  E  Q.     E  E  E   
-----------------7-----|------------------------|------------------7-----|
--5-----------7-----7--|--7----------5--5-------|--7--7---------7-----7--|
-----------------------|------------------------|------------------------|
-----------------------|------------------------|------------------------|


  E  Q    E  E  E  Q       E  E  Q.     E  E  E   
------------------------|------------------7-----|
--7----------5--5-------|--7--7---------7-----7--|
------------------------|------------------------|
------------------------|------------------------|


  S S S S Q    S S S S   Q        E  E  E  E  E  E  E  E   
-------------------------------|--------------------------|
-------------------------------|--------------------------|
-------------------------------|--5--5--5--5--5--5--5--5--|
--5-5-5--------3-3-3---/10\----|--------------------------|


  E  E  E  E  E  E  E  E     E  E  E  E  E  E  E  E   
--------------------------|--------------------------|
--------------------------|--------------------------|
--------------------------|--5--5--5--5--5--5--5--5--|
--5--5--5--5--3--3--3--3--|--------------------------|


  E  E  E  E  E  E  E  E     E  E  E  E  E  E  E  E   
--------------------------|--------------------------|
--------------------------|--------------------------|
--------------------------|--5--5--5--5--5--5--5--5--|
--5--5--5--5--3--3--3--3--|--------------------------|


  E  E  E  E  E  E  E  E     E  E  E  E  E  E  E  E   
--------------------------|--------------------------|
--------------------------|--------------------------|
--------------------------|--5--5--5--5--5--5--5--5--|
--5--5--5--5--3--3--3--3--|--------------------------|


   E  E  E  E  E  E  Q        E  E  E  E  E  E  E  E     E  E  Q    E  E  Q     
-------------------------|--------------------------|----------------------|
-/7--7--------5--5--------|--------------------------|----------------------|
--------------------8\----|--5--5--5--5--5--5--5--5--|----------------------|
--------------------------|--------------------------|--5--5--5----3--3--3--|


  E  E  E  E  E  E  E  E     E  E  Q    E  E  Q       E  E  E  E  E  E  E  E   
--------------------------|------------------------|------------------------|
--------------------------|------------------------|------------------------|
--5--5--5--5--5--5--5--5--|------------------------|--5--5--5--5--5--5--5--5|
--------------------------|--5--5--5----3--3--3----|------------------------|


  E  E  Q    E  E  Q       E  E  E  E  E  E  E  E   
------------------------|--------------------------|
------------------------|--------------------------|
------------------------|--5--5--5--5--5--5--5--5--|
--5--5--5----3--3--3----|--------------------------|


   E  E  E  E  E  E  E  E      E  E  E  E  E  E  E  E   
----------------------------|--------------------------|
--/7--7--------5--5--5--5\--|--------------------------|
----------------------------|--5--5--5--5--5--5--5--5--|
----------------------------|--------------------------|


  E  E  E  E  E  E  E  E     E  E  E  E  E  E  E  E   
--------------------------|--------------------------|
--------------------------|--------------------------|
--------------------------|--5--5--5--5--5--5--5--5--|
--5--5--5--5--3--3--3--3--|--------------------------|


  E  E  E  E  E  E  E  E     E  E  E  E  E  E  E  E   
--------------------------|--------------------------|
--------------------------|--------------------------|
--------------------------|--5--5--5--5--5--5--5--5--|
--5--5--5--5--3--3--3--3--|--------------------------|


  E  E  E  E  E  E  E  E     E  E  E  E  E  E  E  E   
--------------------------|--------------------------|
--------------------------|--------------------------|
--------------------------|--5--5--5--5--5--5--5--5--|
--5--5--5--5--3--3--3--3--|--------------------------|


  E  E  E  E  E  E  E  E     E  E  E  E  E  E  E  E   
--------------------------|--------------------------|
--------------------------|--------------------------|
--------------------------|--5--5--5--5--5--5--5--5--|
--5--5--5--5--3--3--3--3--|--------------------------|


  E  E  E  E  E  E  E  E     E  E  E  E  E  E  E  E   
--------------------------|--------------------------|
--------------------------|--------------------------|
--------------------------|--5--5--5--5--5--5--5--5--|
--5--5--5--5--3--3--3--3--|--------------------------|


  E  E  E  E  E  E  E  E              
--------------------------|---------||
--------------------------|---------||
--------------------------|---------||
--5--5--5--5--3--3--3--3--|---------||




Duration Legend
---------------
W - whole
H - half
Q - quarter
E - 8th
S - 16th
T - 32nd
X - 64th
. - note dotted
|-n-|  - n-tuplets


Tablature Legend
----------------
L - tied note
x - dead note
g - grace note
(n) - ghost note
> - accentuded note
NH - natural harmonic
AH - artificial harmonic
TH - tapped harmonic
SH - semi harmonic
PH - pitch harmonic
h - hammer on
p - pull off
b - bend
br - bendRelease
pb - preBend
pbr - preBendRelease
brb - bendReleaseBend
\n/ - tremolo bar dip
\n - tremolo bar dive
-/n - tremolo bar Release up
/n\ - tremolo bar inverted dip
/n - tremolo bar return
-\n - tremolo bar Release down
S - shift slide
s - legato slide
/ -  slide into from below or out of upwards
\ -  slide into from above or out of downwards
~ - vibrato
W - wide vibrato
tr - trill
TP - tremolo picking
T - tapping
S - slap
P - pop
< - fade in
^ - brush up
v - brush down
            
Submit corrections



        Hollywood lessons Hard to play? Try these video lessons and learn fast Hollywood lessons
        
↑ Back to top | Tablatures and chords for acoustic guitar and electric guitar, ukulele, drums are parodies/interpretations of the original songs. You may use it for private study, scholarship, research or language learning purposes only