» » »

Collective Soul - Goodnight Good Guy Tabs

Artists:  A B C D E F G H I J K L M N O P Q R S T U V W X Y Z # 

Goodnight Good Guy Tabs

(ver. 1) Click to play this song!
Collective Soul
 Rating:
4/5 (4 votes)


 Goodnight Good Guy lessons Tabs too difficult? Try these video lessons and learn fast
 
                Collective Soul
"Goodnight Goodguy"

Solo:

E-----12-12-16p12-14p12----------------------------------------
B-----------------------14b16r14~~~~--9h10-12-12-10b12r10~~~~--
G--------------------------------------------------------------
D--------------------------------------------------------------
A--------------------------------------------------------------
E--------------------------------------------------------------

E-------------------------------------------------14-14-12~~----
B---9h10-9-12-------------------------x-x-9/---s14--------------
G-------------9-9~~~8h9r8-----8-9-----x-x-9/--------------------
D-------------------------9--9----11~~x-x-----------------------
A--------------------------11---------x-x-----------------------
E---------------------------------------------------------------

E---------------------------------------------------------------
B---9h12p9----------------------10b12~~~~(Grad. Bend)-----------
G----------11b13~r11~~-9~~-8~~----------------------------------
D-----------------------------9---------------------------------
A---------------------------------------------------------------
E---------------------------------------------------------------

That's it buddy. That's the proper way to play it. Anybody got a 
            
Submit corrections



        Goodnight Good Guy lessons Hard to play? Try these video lessons and learn fast Goodnight Good Guy lessons
        
↑ Back to top | Tablatures and chords for acoustic guitar and electric guitar, ukulele, drums are parodies/interpretations of the original songs. You may use it for private study, scholarship, research or language learning purposes only