» » »

Coldplay - Amsterdam Tabs

Artists:  A B C D E F G H I J K L M N O P Q R S T U V W X Y Z # 

Amsterdam Tabs

(ver. 3) Click to play this song!
Coldplay
 Rating:
4/5 (4 votes)


 Amsterdam lessons Tabs too difficult? Try these video lessons and learn fast
 
                This is not the same as any of the other tabs. Believe me I've checked. I figured 
this out by blending the vocal harmony into the chords and I think it works really well.

> = Keep note held down (optional)

Verse:

Capo First Fret
           
     D         A     E          G
e|---------0---0----------------------------------------------------|
B|-------3>---------------------------------------------------------|
G|-----2-------------2p1>-------0>----------------------------------|
D|---0-------------------2-----------4-2-0--------------------------|
A|-------------0----------------------------------------------------|
E|-------------------0----------3>----------------------------------|

     D         A          E  G
e|---------0---0----------------------------------------------------|
B|-------3>------2p0------------------------------------------------|
G|-----2-------------2----1>-2>-------------------------------------|
D|---0--------------------------------------------------------------|
A|-------------0----------------------------------------------------|
E|------------------------0>-3>-------------------------------------|

Chorus:

      E          G         D      A
e|----2----------2---------2>---0-----------------------------------|
B|-0--0--0-3-0---0--0-3-0--3>-----2p0-----0-3-0---------------------|
G|----1----------0---------2>---------2-----------------------------|
D|----2----------0---------0>---------------------------------------|
A|----2----------2----------------0>--------------------------------|
E|----0----------3--------------------------------------------------|


Comment and rate.

Enjoy Yourself.

Don't stop playing music.

Jon
            
Submit corrections



        Amsterdam lessons Hard to play? Try these video lessons and learn fast Amsterdam lessons
        
↑ Back to top | Tablatures and chords for acoustic guitar and electric guitar, ukulele, drums are parodies/interpretations of the original songs. You may use it for private study, scholarship, research or language learning purposes only