» » »

Clutch - Immortal Tabs

Artists:  A B C D E F G H I J K L M N O P Q R S T U V W X Y Z # 

Immortal Tabs

(ver. 1) Click to play this song!
Clutch
 Rating:
4/5 (4 votes)

 Immortal lessons Tabs too difficult? Try these video lessons and learn fast
 
                Clutch
Pure Rock Fury

Dropped D

intro/chorus
|------------|
|------------|
|------------|
|-----5-4-3--|
|-0-0-3-2-1--|
|-0-0--------|

verse:
|----------------|
|----------------|
|----------------|
|----5---4---5--|
|-0--3-0-2-0-3--|
|-0----0---0----|

transition riff:
|--------------------------|
|--------------------------|
|--------------------------|
|--------------------------|
|-3-000-3-00-3-0-5-0-3-00-|
|-3-000-3-00-3-0-5-0-3-00-|

prechorus:
|---------------------|--------------|
|---------------------|--------------|
|---------------------|--------------|
|---------------------|--------------|
|-5-4---5-4-2-4-2-0-0-|-3-0-5-0-3-00-|
|-5-4---5-4-2-4-2-0-0-|-3-0-5-0-3-00-|
                         all that x2

|------------|--------------------------|
|------------|--------------------------|
|------------|--------------------------| then play A# again then 
|-3333333----|--------------------------| go into chorus
|-1111111...-|-3-000-3-00-3--0-5-0-3-00-|
|------------|-3-000-3-00-3--0-5-0-3-00-|

pre chorus fill:
D|-79797979-|
A|-57575757-|


- Sean
            
Submit corrections


        Immortal lessons Hard to play? Try these video lessons and learn fast Immortal lessons
        
↑ Back to top | Tablatures and chords for acoustic guitar and electric guitar, ukulele, drums are parodies/interpretations of the original songs. You may use it for private study, scholarship, research or language learning purposes only