» » »

Clutch - Big News I Tabs

Artists:  A B C D E F G H I J K L M N O P Q R S T U V W X Y Z # 

Big News I Tabs

(ver. 1) Click to play this song!
Clutch
 Rating:
4/5 (4 votes)

 Big News I lessons Tabs too difficult? Try these video lessons and learn fast
 
                EADGBE

wait wait 16 beats and play...

Fig. 1
[---------------------------------------------]
[---------------------------------------------]
[---------------------------------------------]
[---------6---6---6-8-6---------6---6---------]
[-6h8-8-8---8---8-------6h8-8-8---8-----------]
[-------------------------------------7--8--9-] play twice

Fig. 2
[-----------------]
[-----------------]
[-----------------]
[-----------------]
[-6h8_____________]hold note for 6 to 8 beats. then wait til
[-----------------]

Fig. 3
[------------]                           [-------------------------]
[------------]                           [-------------------------]
[------------]                           [-------------------------]
[-8/10101010-]                           [-8/1010108/10101013--12--]
[-6/8-8-8-8--]                           [-6/8-8-8-6/8-8-8-11--10--]
[------------]play three times then play [-------------------------]

Fig 4.
[-------------------------------]
[-------------------------------]
[---------8----------8----------]
[-----6-8--------6-8------------]
[-8-6--------8-6------------6-8-]
[-----------------------6-8-----]  play 4 times

Song order:

1
2
3
2
1
4
2

done
            
Submit corrections


        Big News I lessons Hard to play? Try these video lessons and learn fast Big News I lessons
        
↑ Back to top | Tablatures and chords for acoustic guitar and electric guitar, ukulele, drums are parodies/interpretations of the original songs. You may use it for private study, scholarship, research or language learning purposes only