» » »

Clash - Magnificent Seven Bass

Artists:  A B C D E F G H I J K L M N O P Q R S T U V W X Y Z # 

Magnificent Seven Bass

(ver. 1) Click to play this song!
Clash
 Rating:
4/5 (4 votes)
                BASSIST: PAUL SIMONON


INTRO/BRIDGE
G|-2-0-----------------------|
D|-----2-0-------------------|
A|---------3-0---------------|
E|-------------3-0-0---12-12-|

MAIN RIFF
G|-----------7---------------|
D|------7757-----------------|
A|-0-0----------5-5--55-3-55-|
E|---------------------------|

MAIN RIFF (ALTERNATE)
G|-----------7---------------|
D|------7757-----------------|
A|-0------------5-5--55-3-55-|
E|---------------------------|
PAUL PLAYS THIS OCCASIONALLY, YOU HAVE TO LISTEN FOR IT.
IT SOUNDS ALRIGHT IF YOU THROW IT IN EVERY NOW AND THEN, WHEN YOU SEE FIT.

THIS SONG WAS ALSO RE-RELEASED ON THE ALBUM "SUPER BLACK MARKET CLASH",
RENAMED "THE MAGNIFICENT DANCE", I'D RECOMMEND LEARNING TO THIS VERSION FIRST, THE BASS 
MORE PROMINENT.
            
Submit corrections

↑ Back to top | Tablatures and chords for acoustic guitar and electric guitar, ukulele, drums are parodies/interpretations of the original songs. You may use it for private study, scholarship, research or language learning purposes only