» » »

Clap Your Hands Say Yeah - Skin Of My Yellow Country Teeth Bass

Artists:  A B C D E F G H I J K L M N O P Q R S T U V W X Y Z # 

Skin Of My Yellow Country Teeth Bass

(ver. 1) Click to play this song!
Clap Your Hands Say Yeah
 Rating:
4/5 (7 votes)


 Skin Of My Yellow Country Teeth lessons Tabs too difficult? Try these video lessons and learn fast
 
                Music: The skin of my yellow country teeth

Tablature By: Felipe Mun-ra
===================================================

Main Riff:
G|------------------------------------------------|
D|--------------------------------------------2---|
A|--3-3-3-3-3-3-3-3-3-3-------------------3-5---3-|
E|----------------------3-3-3-3-3-3-3-3-5---------|

Riff varial:
G|----------------------------------------------------|
D|------------3-----3-----------------------------2---|
A|--3-3-3-3-3---3-3---3-3-3-------------------3-5---3-|
E|--------------------------3-3-3-3-3-3-3-3-5---------|

Bridge:
G|----------------------------------|
D|----------------------------------|
A|--5-5-5-5-5-5-5-5-3-3-3-3-3-3-3-3-|
E|----------------------------------|
            
Submit corrections



        Skin Of My Yellow Country Teeth lessons Hard to play? Try these video lessons and learn fast Skin Of My Yellow Country Teeth lessons
        
↑ Back to top | Tablatures and chords for acoustic guitar and electric guitar, ukulele, drums are parodies/interpretations of the original songs. You may use it for private study, scholarship, research or language learning purposes only