» » »

Circa Survive - Great Golden Baby Tabs

Artists:  A B C D E F G H I J K L M N O P Q R S T U V W X Y Z # 

Great Golden Baby Tabs

(ver. 1) Click to play this song!
Circa Survive
 Rating:
4/5 (4 votes)


 Great Golden Baby lessons Tabs too difficult? Try these video lessons and learn fast
 
                Circa Survive - Great Golden Baby/Juturna

( )  "Palm mute"
 d   "down strum"
 u   "up strum"

Intro
-----------3---------------------------------------------------------------|
-----4--1--1---------------------------------------------------------------|
--1--1--1--1----1-0-1-0-1--------------------------------------------------|
--3--3--3--3----3-3-3-3-3-------7------------------------------------------|
--3--3--3--3----3-3-3-3-3----6--6------------------------------------------|
-----------------------------8---------------------------------------------|

-----------3----------------------------------------------------------------|
-----4--1--1----------------------------------------------------------------|
--1--1--1--1----1-0-1-0-1----0----------------------------------------------|
--3--3--3--3----3-3-3-3-3----3----------------------------------------------|
--3--3--3--3----3-3-3-3-3----3----------------------------------------------|
----------------------------------------------------------------------------|

-----------3---------------------------------------------------------------|
-----4--1--1---------------------------------------------------------------|
--1--1--1--1----1-0-1-0-1--------------------------------------------------|
--3--3--3--3----3-3-3-3-3-------7------------------------------------------|
--3--3--3--3----3-3-3-3-3----6--6------------------------------------------|
-----------------------------8---------------------------------------------|

-----------3----------------------------------------------------------------|
-----4--1--1----------------------------------------------------------------|
--1--1--1--1----------------------------------------------------------------|
--3--3--3--3----1/3-3-------------------------------------------------------|
--3--3--3--3----1/3-3-------------------------------------------------------|
----------------------------------------------------------------------------|

Verse
-----------------------------------------------------------------|
-----------------------------------------------------------------|
--1--1--1--1-----------------------------------------------------|
--3--3--3--3----------7------------------------------------------|
--3--3--3--3-------6--6------------------------------------------|
-------------------8---------------------------------------------|(x3)

--------------------------------------------------------------------|
--------------------------------------------------------------------|
--1--1--1--1--------------------------------------------------------|
--3--3--3--3--------------------------------------------------------|
--3--3--3--3-------6------------------------------------------------|
-------------------8------------------------------------------------|

Chorus
--x--x----x--8--x--x----x--x----6--6--6--6----x--x----x--x--x--x----x--x----x--x--x--x----x--x----|
--x--x----x--x--x--9----x--x----x--x--x--x----x--x----x--8--x--6----x--x----4--4--4--4----x--x----|
--x--x----5--5--x--5----x--x----3--3--3--3----x--x----x--x--x--x----x--x----x--x--x--x----x--x----|
--x--x----6--6--x--6----x--x----5--5--5--5----x--x----5--5--x--5----x--x----5--5--5--5----x--x----|
--x--x----8--8--x--8----x--x----6--6--6--6----x--x----6--6--x--6----x--x----6--6--6--6----x--x----|
--x--x----x--x--x--x----x--x----x--x--x--x----x--x----x--x--x--x----x--x----x--x--x--x----x--x----|

  d  u    d  u  d  u    d  u    d  u  d  u    d  u    d  u  d  u    d  u    d  u  d  u    d  u


--x----x----x------|
--4----1----4------|
--x----x----x------|
--3----3----5------|
--3----3----6------|
--x----x----x------|


--x--x----x--8--x--x----x--x----6--6--6--6----x--x----x--x--x--x----x--x----x--x--x--x----x--x----|
--x--x----x--x--x--9----x--x----x--x--x--x----x--x----x--8--x--6----x--x----4--4--4--4----x--x----|
--x--x----5--5--x--5----x--x----3--3--3--3----x--x----x--x--x--x----x--x----x--x--x--x----x--x----|
--x--x----6--6--x--6----x--x----5--5--5--5----x--x----5--5--x--5----x--x----5--5--5--5----x--x----|
--x--x----8--8--x--8----x--x----6--6--6--6----x--x----6--6--x--6----x--x----6--6--6--6----x--x----|
--x--x----x--x--x--x----x--x----x--x--x--x----x--x----x--x--x--x----x--x----x--x--x--x----x--x----|

  d  u    d  u  d  u    d  u    d  u  d  u    d  u    d  u  d  u    d  u    d  u  d  u    d  u


--x----x----x--x----|
--4----1----4--6----|
--x----x----x--x----|
--3----3----5--5----|
--3----3----6--6----|
--x----x----x--x----|


Verse 2
------------------------------------|
------------------------------------|
--1---------------------------------|
--3----(5-3-5-3-5-3)--3-------7-----|
--3----(3-3-3-3-3-3)--3----6--6-----|
---------------------------8--------|(x3)

------------------------------------------|
------------------------------------------|
--1---------------------------------------|
--3----(5-3-5-3-5-3-3-3-5-3-5-3)----------|
--3----(3-3-3-3-3-3-3-3-3-3-3-3)----6-----|
------------------------------------8-----|


Chorus


Bridge
--x----x----x----x----|
--6----1----4----1----|
--5----1----5----3----|
--3----3----5----3----|
--3----3----3----x----|
--x----x----x----x----|


And i forgot how to play the rest lols, But its in the video.
So thats about it.. Figure out the strumming and length of the chords yourself.
I tried to help you out with the chorus, Hopefully you get it.
.............................................................
            
Submit corrections



        Great Golden Baby lessons Hard to play? Try these video lessons and learn fast Great Golden Baby lessons
        
↑ Back to top | Tablatures and chords for acoustic guitar and electric guitar, ukulele, drums are parodies/interpretations of the original songs. You may use it for private study, scholarship, research or language learning purposes only