» » »

Chuck Berry - Johnny B Goode Bass

Artists:  A B C D E F G H I J K L M N O P Q R S T U V W X Y Z # 

Johnny B Goode Bass

(ver. 3) Click to play this song!
Chuck Berry
 Rating:
4/5 (14 votes)
    Johnny B Goode lessons Tabs too difficult? Try these video lessons and learn fast
                this is bassed on the boogie bass     enjoy!   play this until fade!!

 do this x2  in a
G----------------------------------------------------------|
D---------4-7-4--------------------------------------------|
E---5------------------------------------------------------|

G---------4-7-4----------------|
D-----4-7-------7-4   do this--| x1
A---5--------------------------|
E------------------------------|

G---------6-9-6----------------|
D-----6-9-------6-9   do this--| x1
A---7--------------------------|
E------------------------------|
            
Submit corrections

↑ Back to top | Tablatures and chords for acoustic guitar and electric guitar, ukulele, drums are parodies/interpretations of the original songs. You may use it for private study, scholarship, research or language learning purposes only