» » »

Chicosci - Matinee Bass

Artists:  A B C D E F G H I J K L M N O P Q R S T U V W X Y Z # 

Matinee Bass

(ver. 1) Click to play this song!
Chicosci
 Rating:
4/5 (4 votes)


 Matinee lessons Tabs too difficult? Try these video lessons and learn fast
 
                
Elow po sa mga friends ko sila Calvin,Jon,Otep,Emak,Aerol,Tuts.. at iba 
pa.. sa mga clasm8s ko sa MNHS(annex) IV-A.. mabuhay kayong lahat.. hehe
Binabati ko rin si Maria Lourdes Vejar, HEHE.. wala lang.. HEHEHE!!


Intro part 1: Bass Enters at 00:06

G|------------------------------------|
D|------------------------------------|
A|------------------------------------| 2x
D|--3/7--3/7--3/7--3/7--3/7-----------|


Intro part 2:

G|--------------------------------------------|
D|--------------------------------------------|
A|--------------------------------------------|
D|--77777777--33333333--77777777-33333333-----|


Verse: "Everyone's Dressed...."

G|--------------------------------------------|
D|--------------------------------------------|
A|--------------------------------------------|
D|--7-7-7-7--3-3-3-3--7-7-7-7--3-3-3-3--------|

(Continuation)
G|--------------------------------------------|
D|--------------------------------------------|
A|--------------------------------------------|
D|--77777777--33333333--77777777--33333333----|
    ........  ........  ........  ........

 (Continuation)
G|----------------------|
D|----------------------|
A|----------------------|
D|--3~~--3~~------------|


Chorus:
G|---------------------------------|
D|---------------------------------| 2x
A|---------------------------------|
D|-7777-10101010-12121212-3333333--|


Repeat Intro part 2
Repeat Verse 
Repeat Chorus


Bridge:
G|---------------------------------|
D|---------------------------------| 2x
A|---------------------------------|
D|-7777-10101010-12121212-3333333--|

 (Continuation)
G|----------------------|
D|----------------------|
A|----------------------|
D|--3~--3~--3~--3~------|


Repeat Chorus


Outro:
G|---------------------------------|
D|---------------------------------| 2x
A|---------------------------------|
D|-7777-10101010-12121212-3333333--|


End


Ang mga anumang bayulenteng reaksyon ay maluwag kong tinatanggap,, kaya kung may mali sa
ko,, i-PM nyo nalang o magpost kayo sa comments.. Salamat,,
            
Submit corrections



        Matinee lessons Hard to play? Try these video lessons and learn fast Matinee lessons
        
↑ Back to top | Tablatures and chords for acoustic guitar and electric guitar, ukulele, drums are parodies/interpretations of the original songs. You may use it for private study, scholarship, research or language learning purposes only