» » »

Chevelle - Humanoid Tabs

Artists:  A B C D E F G H I J K L M N O P Q R S T U V W X Y Z # 

Humanoid Tabs

(ver. 1) Click to play this song!
Chevelle
 Rating:
4/5 (4 votes)

 Humanoid lessons Tabs too difficult? Try these video lessons and learn fast
 
                Tuning: A# F A# D# G C (Drop A#)
Key: . = palm mute
    / and \ = slides

Intro
C--------------------------|
G--------------------------|
D#-------------------------|
A#-------7-------7---7-7-7-| 4x
F--------5-------5---5-5-5-|
A#-5-5-5---5-5-5---5-------|
   . . .   . . .   .

C--------------------------------------------------------------------------|
G--------------------------------------------------------------------------|
D#-------------------------------------------------------------------------|
A#-------------------------------------------------------------------------|
F--------------------------------------------------------------------------|
A#-5-0-3-5-0-3-5-0-5-8-0-3-5-0-3-5-0-3-5-0-5-8-0-3-5-0-3-5-0-3-5-0-5-8-0-3-|

C--------------------------|
G--------------------------|
D#-------------------------|
A#-3-3-3-3-3-3-3-3-3-6-6-6-|
F--1-1-1-1-1-1-3-3-3-6-6-6-|
A#-------------3-3-3-6-6-6-|
     . .   . .   . .   . .

Verse
C--------------------------------------------------|
G--------------------------------------------------|
D#-------------------------------------------------|
A#-------7---7-------7---7-------7-----------------|
F--------5---5-------5---5---------5---------------|
A#-5-5-5---5---5-5-5---5---5-5-5-----5-7-7-7-8-7-6-|
   . . .   .   . . .   .   . . .

Chorus
C-------------------------------------------------------------|
G-------------------------------------------------------------|
D#------------------------------------------------------------|
A#-5/7-7-7-7-7-7-7-7-7-7-7-7/10-10-10-10-10-10-10-10-10-10-10-|
F--3/5-5-5-5-5-5-5-5-5-5-5-5/8--8--8--8--8--8--8--8--8--8--8--|
A#------------------------------------------------------------|

C----------------------------------------------|
G----------------------------------------------|
D#---------------------------------------------|
A#-8-8-8-8-8-8-8-8-8-8-8\7-7-7-7-7-7-7-7-7-7-7-|
F--8-8-8-8-8-8-8-8-8-8-8\7-7-7-7-7-7-7-7-7-7-7-|
A#-8-8-8-8-8-8-8-8-8-8-8\7-7-7-7-7-7-7-7-7-7-7-|

Bridge (I couldn't figure out the first part but will soon)
C--------------------------------------------------
G--------------------------------------------------
D#-------------------------------------------------
A#-5/7-7-7-x-x-x-9-9-10-7-7/8-8-8-x-x-x-10-10-10-5-
F--5/7-7-7-x-x-x-7-7-10-7-7/8-8-8-x-x-x-8--8--10-5-
A#-5/7-7-7-x-x-x-----10-7-7/8-8-8-x-x-x-------10-5-
   "If only the crying could heal"

C---------------------------
G---------------------------
D#--------------------------
A#-7-7-7-9-7-7-8-8-8-10-8-8-
F--7-7-7-7-7-7-8-8-8-8--8-8-
A#-7-7-7---7-7-8-8-8----8-8-
   . . .   . . . . .    . .
"So ill, so ill." 

C--------------------------
G--------------------------
D#-------------------------
A#-5-5-5-7-5-5-6-6-6-8-6-6-
F--5-5-5-5-5-5-6-6-6-6-6-6-
A#-5-5-5---5-5-6-6-6---6-6-
   . . .   . . . . .   . . 
"Outside, outside of this hole."

Outro
C-----------
G---------3-
D#--------2-
A#-6-3-1--0-
F--6-3-1--0-
A#-6-3-1--0-
     . .
            
Submit corrections


        Humanoid lessons Hard to play? Try these video lessons and learn fast Humanoid lessons
        
↑ Back to top | Tablatures and chords for acoustic guitar and electric guitar, ukulele, drums are parodies/interpretations of the original songs. You may use it for private study, scholarship, research or language learning purposes only