» » »

Casualties - Tomorrow Belongs To Us Bass

Artists:  A B C D E F G H I J K L M N O P Q R S T U V W X Y Z # 

Tomorrow Belongs To Us Bass

(ver. 1) Click to play this song!
Casualties
 Rating:
4/5 (4 votes)


 Tomorrow Belongs To Us lessons Tabs too difficult? Try these video lessons and learn fast
 
                casualties f**ken kick ass!!@!#@#(oh yah strum f**ken fast)

Intro
G--------------|
D--------------|
A--5-5-5-------|
E--------5-5-5-|

verse
G---------------------------------------------------------------------|
D-------------------------------------------------------------7-------|
A--99999-7-5-4--------4-5-77-55-44-22---------------777577-999-99979--|
E--------------5555-7-----------------222022-555455-------------------|

pre-verse
G-------------------------------------------------------------------------|
D-------------------------------------------------------------------------|
A--99999-77-55-44-55-44-22-00-77-55-44-22---------------777577-999999979--|
E-----------------------------------------222022-555455-------------------|

course
G-----------------------------------------------------------------------------|
D-----------------------------------------------------------------------------|
A--5555---------------5555------77554422-5555--------------5555------77554422-|
E-------5555-00000000------5555---------------5555-0000000------5555----------|

outro
G-----------------------------------------|
D-----------------------------------------|
A--5-5-5-------2-2-2-------5-5-5-------9--|
E--------5-5-5-------2-2-2-------5-5-5/---|
 

i'm really not that smart so yeah listen to the song and you'll get it!
cheers!
OI PUNX!
            
Submit corrections



        Tomorrow Belongs To Us lessons Hard to play? Try these video lessons and learn fast Tomorrow Belongs To Us lessons
        
↑ Back to top | Tablatures and chords for acoustic guitar and electric guitar, ukulele, drums are parodies/interpretations of the original songs. You may use it for private study, scholarship, research or language learning purposes only