» » »

Carlos Santana - Evil Ways Bass

Artists:  A B C D E F G H I J K L M N O P Q R S T U V W X Y Z # 

Evil Ways Bass

(ver. 2) Click to play this song!
Carlos Santana
 Rating:
4/5 (4 votes)


 Evil Ways lessons Tabs too difficult? Try these video lessons and learn fast
 
                Hi there, this is my first tab so don't be so critical.

Main part:
G:---------------------|----------------------------|
D:---------------------|----------------------------|
A:-1-2-3-------1-2-3-3-|-1-2-3-------1-2-3-3----33--|
E:3-----0-1-2-3--------|3-----0-1-2-3--------3-3--3-|

You can play that, or if you're lazy, you can just do this:
G:-------------------------------------------|
D:-------------------------------------------|
A:-33---33---33------------------------------|
E:3--3-3--3-3--3-----------------------------|

So there you have it, it's a fun song to play, especially if you happen to be playing it in a pep-band.
            
Submit corrections



        Evil Ways lessons Hard to play? Try these video lessons and learn fast Evil Ways lessons
        
↑ Back to top | Tablatures and chords for acoustic guitar and electric guitar, ukulele, drums are parodies/interpretations of the original songs. You may use it for private study, scholarship, research or language learning purposes only