» » »

Carcass - Heart Work Bass

Artists:  A B C D E F G H I J K L M N O P Q R S T U V W X Y Z # 

Heart Work Bass

(ver. 2) Click to play this song!
Carcass
 Rating:
4/5 (4 votes)


 Heart Work lessons Tabs too difficult? Try these video lessons and learn fast
 
                This is an easy song once you get the right timing down. Listen to the song and you'll 
the timing down in minutes.

Main Riff Break
G|----------------------------------|
D|----------------------------------|
A|5-5-5-5-5-5-5-5-5-5-5-2-2-2-6-6-6-|
E|----------------------------------|

Main Riff break variation
G|----------------------------------|
D|----------------------------------|
A|---------------------3-3-3-6-6-6--|
E|2-2-2-2-2-2-2-2-2-2-2-------------|

Main Riff
G|------------------------------------|
D|------------------------------------|
A|-------9-9-10-10-12-12-10-10-9-9-10-|
E|0-0-7-7-----------------------------|

Mellow Break I
G|-----|---------------------|-----|
D|-----|---------------------|-----|
A|-2-6-|---9-10-12-10-9h10p9-|-3-6-|
E|2----|0-7------------------|2----|

Solo Section
G|-------|-------------|
D|-------|-------------|
A|7-10-6-|7-10---------|
E|----8--|----8-10-8-7-|

Verse Riff
G|--------------------------|
D|--------------------------|
A|--------------------------|
E|0-0-0-0-0-1-1-1-4-4-3-3-1-|

Chorus
G|----------|
D|----------|
A|7-10-9----|
E|----8-5-7-|

Mellow Break II
G|-------------------|-----|---------------------|-----|
D|-------------------|-----|---------------------|-----|
A|---9-10-12-10-9-10-|-2-6-|---9-10-12-10-9h10p9-|-3-6-|
E|0-7----------------|2----|0-7------------------|2----|

Mellow Break III
G|--------|
D|--------|
A|7-6-5-4-|
E|--------|

Brutal Section
G|------------------| Play for as long as he plays it.
D|------------------|
A|------------------|
E|0-0-0-0-0-0-0-0-0-|
            
Submit corrections



        Heart Work lessons Hard to play? Try these video lessons and learn fast Heart Work lessons
        
↑ Back to top | Tablatures and chords for acoustic guitar and electric guitar, ukulele, drums are parodies/interpretations of the original songs. You may use it for private study, scholarship, research or language learning purposes only